PrimaNota.ru - самый крупный в мире бесплатный архив песенных текстов, аккордов, табулатур и нот


Bush - Just Like My Other Sins - таба, видео

Регистрация Запомнить меня
Войти через:  Facebook Google Twitter Vk Yandex Mail.ru

Bush - Just Like My Other Sins - таба, видео

Печатать
Просмотров: 140
Author/Artist: Bush
Title: Just Like My Other Sins



Tuning (eb ab db gb bb eb), Straight pick.



----|-----------------------------------------|--|-------------------------------------|--|
----|-----------------------------------------|--|-------------------------------------|--|
----|-----------------------------------------|--|-------------------------------------|--|
----|(15vvvv)---------------------------------|--|(20vv)-------------------------------|--|
----|-------------------------14/15-----13----|--|---------------------------15---15---|--|
----|-8--8------8------8----------------------|--|-6-6-----6-----6-----6---------------|--|


  Intro/Verse                                                                 






----|-----------------------------------------|--|------------------------------|
----|-----------------------------------------|--|------------------------------|
----|-----------------------------------------|--|-----------------15h17--------|
----|-----------------------------------------|--|-17p15-------------------17---|
----|-----------------------------------------|--|---------15h17----------------|
----|-8-------8---8------4------4--4-----6----|--|------------------------------|
                                                   Fill

  Chorus                                                                   


----|------------------------------------------------|--|----------------|
----|------------------------------------------------|--|----------------|
----|------------------------------------------------|--|----------------|
----|------------------------------------------------|--|----------------|
----|------------------------------------------------|--|-18-----13------|
----|-8-------8---8------4------4--4------6----1-----|--|----------------|
                                                       Fill                        







----|-------------------------------------------------------|--|----------------|--|
----|-------------------------------------------------------|--|----------------|--|
----|-------------------------------------------------------|--|---17-----------|--|
----|-------------------------------------------------------|--|----------------|--|
----|-------------------------------------------------------|--|----------15----|--|
----|-4---4--------11---11--------6---6--------2---2--------|--|----------------|--|


  Bridge                                                                      






----|-----------------|--|---------------------------|---------------------|
----|-----------------|--|---------------------------|---------------------|
----|-----------------|--|-----------------15h17-----|-17vvvvv-------------|
----|-----------------|--|-17p15---------------------|---------------------|
----|-----------------|--|---------15h17-------------|---------------------|
----|-8--8---8---8----|--|---------------------------|---------------------|


  Outro                                                                       
Добавлено: 05.04.2015
Другие материалы по этой песне:
  • Аккорды и текст

Страница создана 05.04.2015
http://primanota.ru/bush/just-like-my-other-sins-chords.htm
Привет, Гость.
Предлагаем пройти революционный курс по гитаре.
Подарок от PrimaNota.Ru, забирай!