PrimaNota.ru - самый крупный в мире бесплатный архив песенных текстов, аккордов, табулатур и нот


Bush - Glycerin - таба, видео

Регистрация Запомнить меня
Войти через:  Facebook Google Twitter Vk Yandex Mail.ru

Bush - Glycerin - таба, видео

Печатать
Просмотров: 160
Author/Artist: Bush
Title: Glycerin
x scartch note
/ slide up
\ slide down
p pull off

Arranged for 1 guitar

Standard Tuning

------|-------------------------------------------------------------------|---|
------|-------------------------------------------------------------------|---|
------|-------2-----2---------5-----5---------7-7-7-7-\-------3-----3-----|---|
------|-3-----3-----3---5-----5-----5---7-----7-7-7-7-\-3-----3-----3-----|---|
------|-3-3-3---3-3---0-3-3-3---3-3---3/5-5-5-----------1-1-1---1-1---1p0-|---|
------|-x---------------x---------------x---------------x-----------------|---|
       Intro/Verse/Bridge Riff p.m. all

------|------------------------------------------|-|--------------------------|
------|------------------------------------------|-|--------------------------|
------|-2-2-2-2-2-2-2-2-x-x-5--5-x-x-3--3--3-x-x-|-|--------------------------|
------|-3-3-3-3-3-3-3-3-x-x-5--5-x-x-3--3--3-x-x-|-|--------------------------|
------|------------------------------------------|-|--------------------------|
------|------------------------------------------|-|--------------------------|
       Chorus p.m. all

------|----------|--|--------|------------------------------------------------|
------|----------|--|--------|------------------------------------------------|
------|-7---3----|--|-7------|------------------------------------------------|
------|-7---3----|--|-7------|------------------------------------------------|
------|----------|--|--------|------------------------------------------------|
------|----------|--|--------|------------------------------------------------|
      Interlude Chords
Добавлено: 07.06.2013
Другие материалы по этой песне:
  • Аккорды и текст

Страница создана 07.06.2013
http://primanota.ru/bush/glycerin-chords.htm
Привет, Гость.
Предлагаем пройти революционный курс по гитаре.
Подарок от PrimaNota.Ru, забирай!