PrimaNota.ru - самый крупный в мире бесплатный архив песенных текстов, аккордов, табулатур и нот


Burzum - Turn The Sign Of The Microcosm Live - таба, видео

Регистрация Запомнить меня
Войти через:  Facebook Google Twitter Vk Yandex Mail.ru

Burzum - Turn The Sign Of The Microcosm Live - таба, видео

Печатать
Просмотров: 88
Burzum - Turn The Sign Of The Microcosm
This tab is for the outro of the song where Varg played 'live and unplugged' in his garage
on YouTube
Title: Turn the Sign of the Microcosm (the ending, live and unplugged) uploaded by himself

Part 1
e||------------------------------------------------------------------------|
B||------------------------------------------------------------------------|
G||-------------------------------------------------------------0----------|
D||--0--0--0--0--0--0--0--0--0--0--0--0--0--0--0--0--0--0--0--0---0---0----|
A||--2-----------2-----------2-----------2-----------3--------------3------|
E||------------------------------------------------------------------------|

Part 2
e||------------------------------------------------------------------------------------------------| 
B||------------------------------------------------------------------------------------------------|
G||-------0---------0---------0---------0---------0---------0---------0---------0---------0--------|
D||--0--0---0--0--0---0--0--0---0--0--0---0--0--0---0--0--0---0--0--0---0--0--0---0--0--0---0------|
A||--2---------2---------2---------2---------5---------4---------4---------4---------4-------------|
E||------------------------------------------------------------------------------------------------|

Part 3
e||----------------------------------------------------------------------------------------------|
B||----------------------------------------------------------------------------------------------|
G||-------0---------0---------0---------0---------0---------0---------0-------0------------------|
D||--0--0---0--0--0---0--0--0---0--0--0---0--0--0---0--0--0---0--0--0---0-----0---0--------------|
A||--7---------9---------7--------10---------7---------9---------7---------0---------------------|
E||------------------------------------------------------------------------8---------------------|


Part 1 x4
Part 2 x4

Part 1 x4
Part 2 x4

Part 3 x4
Part 2 x4
Добавлено: 26.06.2016
Другие материалы по этой песне:
  • Аккорды и текст

Страница создана 26.06.2016
http://primanota.ru/burzum/turn-sign-of-microcosm-live-chords.htm
Привет, Гость.
Предлагаем пройти революционный курс по гитаре.
Подарок от PrimaNota.Ru, забирай!