PrimaNota.ru - самый крупный в мире бесплатный архив песенных текстов, аккордов, табулатур и нот


Bury Your Dead - Outsiders - текст песни, таба, бас-таба, видео

Регистрация Запомнить меня
Войти через:  Facebook Google Twitter Vk Yandex Mail.ru

Bury Your Dead - Outsiders - текст песни, таба, бас-таба, видео

Печатать
Просмотров: 147
The Outsiders                                   
Bury Your Dead
Slim



Tuning: A# F A# D# G C



       PM PM PM PM PM PM PM PM PM PM PM       PM PM PM PM    PM PM PM PM    
       E  E  S  S  E  S  S  E  S  S  E     E  S  S  E  E  E  S  S  E  E   3x
C ||------------------------------------|---------------------------------||
G ||------------------------------------|---------------------------------||
D#||*-----------------------------------|--------------------------------*||
A#||*-----------------------------------|--------------------------------*||
F ||------------------------------------|---------------------------------||
A#||---0--0--1--0--0--1--0--0--1--0--0--|-----1--0--0--0-----1--0--0--0---||


  PM PM PM PM PM PM PM PM              
                          |-3-| |-3-|  
  E  E  S  S  E  S  S  E  S S S S S S  
--------------------------------------|
--------------------------------------|
--------------------------------------|
--------------------------------------|
--------------------------------------|
--0--0--1--0--0--1--0--0--1-1-1-1-1-1-|


  |-3-| |-3-| |-3-| |-3-| |-3-| |-3-| |-3-| |-3-|  
  S S S S S S S S S S S S S S S S S S S S S S S S  
--------------------------------------------------|
--------------------------------------------------|
--------------------------------------------------|
--------------------------------------------------|
--------------------------------------------------|
--3-3-3-3-3-3-4-4-4-4-4-4-3-3-3-3-3-3-6-6-6-6-6-6-|


  PM PM PM PM PM PM PM PM PM PM PM       PM PM PM PM    PM PM PM PM  
  E  E  S  S  E  S  S  E  S  S  E     E  S  S  E  E  E  S  S  E  E   
-----------------------------------|--------------------------------|
-----------------------------------|--------------------------------|
-----------------------------------|--------------------------------|
-----------------------------------|--------------------------------|
-----------------------------------|--------------------------------|
--0--0--1--0--0--1--0--0--1--0--0--|-----1--0--0--0-----1--0--0--0--|


    PM PM PM PM PM PM PM PM PM PM PM       PM PM PM PM    PM PM PM PM    
    E  E  S  S  E  S  S  E  S  S  E     E  S  S  E  E  E  S  S  E  E     
|------------------------------------|---------------------------------||
|------------------------------------|---------------------------------||
|*-----------------------------------|--------------------------------*||
|*-----------------------------------|--------------------------------*||
|------------------------------------|---------------------------------||
|---0--0--1--0--0--1--0--0--1--0--0--|-----1--0--0--0-----1--0--0--0---||


  PM PM PM PM PM PM PM PM              
                          |-3-| |-3-|  
  E  E  S  S  E  S  S  E  S S S S S S  
--------------------------------------|
--------------------------------------|
--------------------------------------|
--------------------------------------|
--------------------------------------|
--0--0--1--0--0--1--0--0--1-1-1-1-1-1-|


  |-3-| |-3-| |-3-| |-3-| |-3-| |-3-| |-3-| |-3-|  
  S S S S S S S S S S S S S S S S S S S S S S S S  
--------------------------------------------------|
--------------------------------------------------|
--------------------------------------------------|
--------------------------------------------------|
--------------------------------------------------|
--3-3-3-3-3-3-4-4-4-4-4-4-3-3-3-3-3-3-6-6-6-6-6-6-|


  PM PM PM PM PM PM PM PM PM PM PM       PM PM PM PM    PM PM PM PM  
  E  E  S  S  E  S  S  E  S  S  E     E  S  S  E  E  E  S  S  E  E   
-----------------------------------|--------------------------------|
-----------------------------------|--------------------------------|
-----------------------------------|--------------------------------|
-----------------------------------|--------------------------------|
-----------------------------------|--------------------------------|
--0--0--1--0--0--1--0--0--1--0--0--|-----1--0--0--0-----1--0--0--0--|


    PM PM PM PM PM PM PM PM PM PM PM       PM PM PM PM    PM PM PM PM    
    E  E  S  S  E  S  S  E  S  S  E     E  S  S  E  E  E  S  S  E  E     
|------------------------------------|---------------------------------||
|------------------------------------|---------------------------------||
|*-----------------------------------|--------------------------------*||
|*-----------------------------------|--------------------------------*||
|------------------------------------|---------------------------------||
|---0--0--1--0--0--1--0--0--1--0--0--|-----1--0--0--0-----1--0--0--0---||


  PM PM PM PM PM PM PM PM              
                          |-3-| |-3-|  
  E  E  S  S  E  S  S  E  S S S S S S  
--------------------------------------|
--------------------------------------|
--------------------------------------|
--------------------------------------|
--------------------------------------|
--0--0--1--0--0--1--0--0--1-1-1-1-1-1-|


                                                     PM               PM PM  
  |-3-| |-3-| |-3-| |-3-| |-3-| |-3-| |-3-| |-3-|                            
  S S S S S S S S S S S S S S S S S S S S S S S S    E  Q    E  E  E  E  E   
--------------------------------------------------|-------------------------|
--------------------------------------------------|-------------------------|
--------------------------------------------------|-----7----7--8--7--------|
--------------------------------------------------|-----7----7--8--7--------|
--------------------------------------------------|-----0----0--0--0--------|
--3-3-3-3-3-3-4-4-4-4-4-4-3-3-3-3-3-3-6-6-6-6-6-6-|--0--0----0--0--0--0--0--|


  PM    PM    PM             PM               PM PM  
  E  E  E  E  E  E  E  E     E  Q    E  E  E  E  E   
--------------------------|-------------------------|
--------------------------|-------------------------|
--------------------------|-----7----7--8--7--------|
--------------------------|-----7----7--8--7--------|
--------------------------|-----0----0--0--0--------|
--0--0--0--0--0--3--4--3--|--0--0----0--0--0--0--0--|


  PM PM PM PM PM PM PM PM PM PM PM PM    PM               PM PM  
  |--3--|  |--3--|  |--3--|  |--3--|                             
  E  E  E  E  E  E  E  E  E  E  E  E     E  Q    E  E  E  E  E   
--------------------------------------|-------------------------|
--------------------------------------|-------------------------|
--------------------------------------|-----7----7--8--7--------|
--------------------------------------|-----7----7--8--7--------|
--------------------------------------|-----0----0--0--0--------|
--3--3--3--4--4--4--3--3--3--6--6--6--|--0--0----0--0--0--0--0--|


  PM    PM    PM             PM               PM PM  
  E  E  E  E  E  E  E  E     E  Q    E  E  E  E  E   
--------------------------|-------------------------|
--------------------------|-------------------------|
--------------------------|-----7----7--8--7--------|
--------------------------|-----7----7--8--7--------|
--------------------------|-----0----0--0--0--------|
--0--0--0--0--0--3--4--3--|--0--0----0--0--0--0--0--|


  PM PM PM PM PM PM PM PM PM PM PM PM    PM               PM PM  
  |--3--|  |--3--|  |--3--|  |--3--|                             
  E  E  E  E  E  E  E  E  E  E  E  E     E  Q    E  E  E  E  E   
--------------------------------------|-------------------------|
--------------------------------------|-------------------------|
--------------------------------------|-----7----7--8--7--------|
--------------------------------------|-----7----7--8--7--------|
--------------------------------------|-----0----0--0--0--------|
--3--3--3--4--4--4--3--3--3--6--6--6--|--0--0----0--0--0--0--0--|


  PM    PM    PM             PM               PM PM  
  E  E  E  E  E  E  E  E     E  Q    E  E  E  E  E   
--------------------------|-------------------------|
--------------------------|-------------------------|
--------------------------|-----7----7--8--7--------|
--------------------------|-----7----7--8--7--------|
-----------------3--4--3--|-----0----0--0--0--------|
--0--0--0--0--0--3--4--3--|--0--0----0--0--0--0--0--|


  PM PM PM  PM PM PM  PM PM PM  PM PM PM     PM               PM PM  
  3  3  3   3  3  3   3  3  3   3  3  3                              
  S. S. E.  S. S. E.  S. S. E.  S. S. E.     E  Q    E  E  E  E  E   
------------------------------------------|-------------------------|
------------------------------------------|-------------------------|
------------------------------------------|-----7----7--8--7--------|
------------------------------------------|-----7----7--8--7--------|
------------------------------------------|-----0----0--0--0--------|
--3--3--3---4--4--4---3--3--3---6--6--6---|--0--0----0--0--0--0--0--|


  PM    PM    PM             PM               PM PM  
  E  E  E  E  E  E  E  E     E  Q    E  E  E  E  E   
--------------------------|-------------------------|
--------------------------|-------------------------|
--------------------------|-----7----7--8--7--------|
--------------------------|-----7----7--8--7--------|
-----------------3--4--3--|-----0----0--0--0--------|
--0--0--0--0--0--3--4--3--|--0--0----0--0--0--0--0--|


  PM PM PM  PM PM PM  PM PM PM  PM PM PM     PM               PM PM  
  3  3  3   3  3  3   3  3  3   3  3  3                              
  S. S. E.  S. S. E.  S. S. E.  S. S. E.     E  Q    E  E  E  E  E   
------------------------------------------|-------------------------|
------------------------------------------|-------------------------|
------------------------------------------|-----7----7--8--7--------|
------------------------------------------|-----7----7--8--7--------|
------------------------------------------|-----0----0--0--0--------|
--3--3--3---4--4--4---3--3--3---6--6--6---|--0--0----0--0--0--0--0--|


  PM    PM    PM             PM               PM PM  
  E  E  E  E  E  E  E  E     E  Q    E  E  E  E  E   
--------------------------|-------------------------|
--------------------------|-------------------------|
--------------------------|-----7----7--8--7--------|
--------------------------|-----7----7--8--7--------|
-----------------3--4--3--|-----0----0--0--0--------|
--0--0--0--0--0--3--4--3--|--0--0----0--0--0--0--0--|


  PM PM PM  PM PM PM  PM PM PM  PM PM PM     PM               PM PM  
  3  3  3   3  3  3   3  3  3   3  3  3                              
  S. S. E.  S. S. E.  S. S. E.  S. S. E.     E  Q    E  E  E  E  E   
------------------------------------------|-------------------------|
------------------------------------------|-------------------------|
------------------------------------------|-----7----7--8--7--------|
------------------------------------------|-----7----7--8--7--------|
------------------------------------------|-----0----0--0--0--------|
--3--3--3---4--4--4---3--3--3---6--6--6---|--0--0----0--0--0--0--0--|


  PM    PM    PM             PM               PM PM  
  E  E  E  E  E  E  E  E     E  Q    E  E  E  E  E   
--------------------------|-------------------------|
--------------------------|-------------------------|
--------------------------|-----7----7--8--7--------|
--------------------------|-----7----7--8--7--------|
-----------------3--4--3--|-----0----0--0--0--------|
--0--0--0--0--0--3--4--3--|--0--0----0--0--0--0--0--|


  PM PM PM  PM PM PM  PM PM PM  PM PM PM                         
  3  3  3   3  3  3   3  3  3   3  3  3                          
  S. S. E.  S. S. E.  S. S. E.  S. S. E.       W                 
------------------------------------------||--------------------|
------------------------------------------||--------------------|
------------------------------------------||*-------------------|
------------------------------------------||*--0----------------|
------------------------------------------||---0----------------|
--3--3--3---4--4--4---3--3--3---6--6--6---||---0----------------|


  W                   Q.     Q.     Q       W                   
-------------------|---------------------|--------------------||
-------------------|---------------------|--------------------||
-------------------|---------------------|-------------------*||
--L----------------|--1------0------3----|--L----------------*||
--L----------------|--1------0------3----|--L-----------------||
--L----------------|--1------0------3----|--L-----------------||


  PM               PM PM    PM    PM    PM             PM               PM PM  
  E  Q    E  E  E  E  E     E  E  E  E  E  E  E  E     E  Q    E  E  E  E  E   
-------------------------|--------------------------|-------------------------|
-------------------------|--------------------------|-------------------------|
-----7----7--8--7--------|--------------------------|-----7----7--8--7--------|
-----7----7--8--7--------|--------------------------|-----7----7--8--7--------|
-----0----0--0--0--------|-----------------3--4--3--|-----0----0--0--0--------|
--0--0----0--0--0--0--0--|--0--0--0--0--0--3--4--3--|--0--0----0--0--0--0--0--|


  PM PM PM  PM PM PM  PM PM PM  PM PM PM     PM               PM PM  
  3  3  3   3  3  3   3  3  3   3  3  3                              
  S. S. E.  S. S. E.  S. S. E.  S. S. E.     E  Q    E  E  E  E  E   
------------------------------------------|-------------------------|
------------------------------------------|-------------------------|
------------------------------------------|-----7----7--8--7--------|
------------------------------------------|-----7----7--8--7--------|
------------------------------------------|-----0----0--0--0--------|
--3--3--3---4--4--4---3--3--3---6--6--6---|--0--0----0--0--0--0--0--|


  PM    PM    PM             PM               PM PM  
  E  E  E  E  E  E  E  E     E  Q    E  E  E  E  E   
--------------------------|-------------------------|
--------------------------|-------------------------|
--------------------------|-----7----7--8--7--------|
--------------------------|-----7----7--8--7--------|
-----------------3--4--3--|-----0----0--0--0--------|
--0--0--0--0--0--3--4--3--|--0--0----0--0--0--0--0--|


  PM PM PM  PM PM PM  PM PM PM  PM PM PM     PM               PM PM  
  3  3  3   3  3  3   3  3  3   3  3  3                              
  S. S. E.  S. S. E.  S. S. E.  S. S. E.     E  Q    E  E  E  E  E   
------------------------------------------|-------------------------|
------------------------------------------|-------------------------|
------------------------------------------|-----7----7--8--7--------|
------------------------------------------|-----7----7--8--7--------|
------------------------------------------|-----0----0--0--0--------|
--3--3--3---4--4--4---3--3--3---6--6--6---|--0--0----0--0--0--0--0--|


  PM    PM    PM             PM               PM PM  
  E  E  E  E  E  E  E  E     E  Q    E  E  E  E  E   
--------------------------|-------------------------|
--------------------------|-------------------------|
--------------------------|-----7----7--8--7--------|
--------------------------|-----7----7--8--7--------|
-----------------3--4--3--|-----0----0--0--0--------|
--0--0--0--0--0--3--4--3--|--0--0----0--0--0--0--0--|


  PM PM PM  PM PM PM  PM PM PM  PM PM PM     PM               PM PM  
  3  3  3   3  3  3   3  3  3   3  3  3                              
  S. S. E.  S. S. E.  S. S. E.  S. S. E.     E  Q    E  E  E  E  E   
------------------------------------------|-------------------------|
------------------------------------------|-------------------------|
------------------------------------------|-----7----7--8--7--------|
------------------------------------------|-----7----7--8--7--------|
------------------------------------------|-----0----0--0--0--------|
--3--3--3---4--4--4---3--3--3---6--6--6---|--0--0----0--0--0--0--0--|


  PM    PM    PM             PM               PM PM  
  E  E  E  E  E  E  E  E     E  Q    E  E  E  E  E   
--------------------------|-------------------------|
--------------------------|-------------------------|
--------------------------|-----7----7--8--7--------|
--------------------------|-----7----7--8--7--------|
-----------------3--4--3--|-----0----0--0--0--------|
--0--0--0--0--0--3--4--3--|--0--0----0--0--0--0--0--|


  PM PM PM  PM PM PM  PM PM PM  PM PM PM     PM               PM PM  
  3  3  3   3  3  3   3  3  3   3  3  3                              
  S. S. E.  S. S. E.  S. S. E.  S. S. E.     E  Q    E  E  E  E  E   
------------------------------------------|-------------------------|
------------------------------------------|-------------------------|
------------------------------------------|-----7----7--8--7--------|
------------------------------------------|-----7----7--8--7--------|
------------------------------------------|-----0----0--0--0--------|
--3--3--3---4--4--4---3--3--3---6--6--6---|--0--0----0--0--0--0--0--|


  PM    PM    PM             PM               PM PM  
  E  E  E  E  E  E  E  E     E  Q    E  E  E  E  E   
--------------------------|-------------------------|
--------------------------|-------------------------|
--------------------------|-----7----7--8--7--------|
--------------------------|-----7----7--8--7--------|
-----------------3--4--3--|-----0----0--0--0--------|
--0--0--0--0--0--3--4--3--|--0--0----0--0--0--0--0--|


  PM PM PM  PM PM PM  PM PM PM  PM PM PM     PM               PM PM  
  3  3  3   3  3  3   3  3  3   3  3  3                              
  S. S. E.  S. S. E.  S. S. E.  S. S. E.     E  Q    E  E  E  E  E   
------------------------------------------|-------------------------|
------------------------------------------|-------------------------|
------------------------------------------|-----7----7--8--7--------|
------------------------------------------|-----7----7--8--7--------|
------------------------------------------|-----0----0--0--0--------|
--3--3--3---4--4--4---3--3--3---6--6--6---|--0--0----0--0--0--0--0--|


  PM    PM    PM             PM               PM PM  
  E  E  E  E  E  E  E  E     E  Q    E  E  E  E  E   
--------------------------|-------------------------|
--------------------------|-------------------------|
--------------------------|-----7----7--8--7--------|
--------------------------|-----7----7--8--7--------|
-----------------3--4--3--|-----0----0--0--0--------|
--0--0--0--0--0--3--4--3--|--0--0----0--0--0--0--0--|


  PM PM PM  PM PM PM  PM PM PM  PM PM PM     PM PM PM PM PM PM PM PM PM PM PM  
  3  3  3   3  3  3   3  3  3   3  3  3                                        
  S. S. E.  S. S. E.  S. S. E.  S. S. E.     E  E  S  S  E  S  S  E  S  S  E   
------------------------------------------|-----------------------------------|
------------------------------------------|-----------------------------------|
------------------------------------------|-----------------------------------|
------------------------------------------|-----------------------------------|
------------------------------------------|-----------------------------------|
--3--3--3---4--4--4---3--3--3---4--4--4---|--0--0--1--0--0--1--0--0--1--0--0--|


         PM PM           PM PM       PM PM PM PM PM PM PM PM PM PM PM  
  E  S S S  S  E  E  S S S  S  E     E  E  S  S  E  S  S  E  S  S  E   
----------------------------------|-----------------------------------|
----------------------------------|-----------------------------------|
----------------------------------|-----------------------------------|
----------------------------------|-----------------------------------|
----------------------------------|-----------------------------------|
-----0-0-0--0--0-----0-0-0--0--0--|--0--0--1--0--0--1--0--0--1--0--0--|


     PM PM PM PM    PM PM PM PM    PM PM PM PM PM PM PM PM PM PM PM  
  E  E  S  S  E  E  E  S  S  E     E  E  S  S  E  S  S  E  S  S  E   
--------------------------------|-----------------------------------|
--------------------------------|-----------------------------------|
--------------------------------|-----------------------------------|
--------------------------------|-----------------------------------|
--------------------------------|-----------------------------------|
-----0--0--0--0-----0--0--0--0--|--0--0--1--0--0--1--0--0--1--0--0--|


     PM PM PM PM    PM PM PM PM    PM PM PM PM PM PM PM PM PM PM PM  
  E  E  S  S  E  E  E  S  S  E     E  E  S  S  E  S  S  E  S  S  E   
--------------------------------|-----------------------------------|
--------------------------------|-----------------------------------|
--------------------------------|-----------------------------------|
--------------------------------|-----------------------------------|
--------------------------------|-----------------------------------|
-----0--0--0--0-----0--0--0--0--|--0--0--1--0--0--1--0--0--1--0--0--|


     PM PM PM PM    PM PM PM PM    PM PM PM PM PM PM PM PM PM PM PM  
  E  E  S  S  E  E  E  S  S  E     E  E  S  S  E  S  S  E  S  S  E   
--------------------------------|-----------------------------------|
--------------------------------|-----------------------------------|
--------------------------------|-----------------------------------|
--------------------------------|-----------------------------------|
--------------------------------|-----------------------------------|
-----0--0--0--0-----0--0--0--0--|--0--0--1--0--0--1--0--0--1--0--0--|


         PM PM           PM PM            
  E  S S S  S  E  E  S S S  S  E          
----------------------------------|-----||
----------------------------------|-----||
----------------------------------|-----||
----------------------------------|-----||
----------------------------------|-----||
-----0-0-0--0--0-----0-0-0--0--0--|-----||




Duration Legend
---------------
W - whole
H - half
Q - quarter
E - 8th
S - 16th
T - 32nd
X - 64th
. - note dotted
|-n-|  - n-tuplets


Tablature Legend
----------------
L - tied note
x - dead note
g - grace note
(n) - ghost note
> - accentuded note
NH - natural harmonic
AH - artificial harmonic
TH - tapped harmonic
SH - semi harmonic
PH - pitch harmonic
h - hammer on
p - pull off
b - bend
br - bendRelease
pb - preBend
pbr - preBendRelease
brb - bendReleaseBend
\n/ - tremolo bar dip
\n - tremolo bar dive
-/n - tremolo bar Release up
/n\ - tremolo bar inverted dip
/n - tremolo bar return
-\n - tremolo bar Release down
S - shift slide
s - legato slide
/ -  slide into from below or out of upwards
\ -  slide into from above or out of downwards
~ - vibrato
W - wide vibrato
tr - trill
TP - tremolo picking
T - tapping
S - slap
P - pop
< - fade in
^ - brush up
v - brush down
Добавлено: 12.05.2012
Другие материалы по этой песне:

Страница создана 29.04.2012
http://primanota.ru/bury-your-dead/outsiders-chords.htm
Привет, Гость.
Предлагаем пройти революционный курс по гитаре.
Подарок от PrimaNota.Ru, забирай!