PrimaNota.ru - самый крупный в мире бесплатный архив песенных текстов, аккордов, табулатур и нот


Bury Your Dead - Mirror Mirror - текст песни, таба, видео

Регистрация Запомнить меня
Войти через:  Facebook Google Twitter Vk Yandex Mail.ru

Bury Your Dead - Mirror Mirror - текст песни, таба, видео

Печатать
Просмотров: 142
Gtr I (A E A D Gb B) - 'Right'
Gtr II (A E A D Gb B) - 'Left'
Gtr III (A E A D Gb B) - 'Voice during quiet part'

 Drum Intro        "I'll look at you with the..."
  Metalcore Q=190
  N.C.         D5
 4/4          1/8  4/4
  Gtr I
               PM---------------------------------------------------|
  W            E    E E E E Q.   E   E E E E E E E E   E E E E Q.   E
|----------||----||----------------|-----------------|-----------------|
|----------||o---||----------------|-----------------|-----------------|
|----------||----||----------------|-----------------|-----------------|
|----------||----||----------------|-----------------|-----------------|
|----------||o-0-||---0---0------0-|---0---0-0-0---0-|---0---0------0--|
|----------||--0-||---0---0------0-|---0---0-0-0---0-|---0---0------0--|
|
| Gtr II
|              PM---------------------------------------------------|
| W            E    E E E E Q.   E   E E E E E E E E   E E E E Q.   E
|----------||----||----------------|-----------------|-----------------|
|----------||o---||----------------|-----------------|-----------------|
|----------||----||----------------|-----------------|-----------------|
|----------||----||----------------|-----------------|-----------------|
|----------||o-0-||---0---0------0-|---0---0-0-0---0-|---0---0------0--|
|----------||--0-||---0---0------0-|---0---0-0-0---0-|---0---0------0--|


  D5
    PM------------------------------------------------
  E E E E E E E E   E E E E Q.   E   E E E E E E E E
|-----------------|----------------|-----------------|
|-----------------|----------------|-----------------|
|-----------------|----------------|-----------------|
|-----------------|----------------|-----------------|
|---0---0-0-0---0-|---0---0------0-|---0---0-0-0---0-|
|---0---0-0-0---0-|---0---0------0-|---0---0-0-0---0-|
|
|   PM------------------------------------------------
| E E E E E E E E   E E E E Q.   E   E E E E E E E E
|-----------------|----------------|-----------------|
|-----------------|----------------|-----------------|
|-----------------|----------------|-----------------|
|-----------------|----------------|-----------------|
|---0---0-0-0---0-|---0---0------0-|---0---0-0-0---0-|
|---0---0-0-0---0-|---0---0------0-|---0---0-0-0---0-|


            \5
 ---------|
  E E E E E S  S E E   E Q  E E Q.
|--------------------|-----------------||
|--------------------|----------------o||
|-----------x--x-x-x-|-x-x--x-x-x------||
|-----------x--x-x-x-|-x-x--x-x-x------||
|---0---0---x--x-x-x-|-x-x--x-x-x-----o||
|---0---0---x--x-x-x-|-x-x--x-x-x------||
|
|           \5
|---------|
| E E E E E S  S E E   E Q  E E Q.
|--------------------|-----------------||
|--------------------|----------------o||
|-----------x--x-x-x-|-x-x--x-x-x------||
|-----------x--x-x-x-|-x-x--x-x-x------||
|---0---0---x--x-x-x-|-x-x--x-x-x-----o||
|---0---0---x--x-x-x-|-x-x--x-x-x------||


                  "You said I was forced..."
  $
  N.C.
 6/8              4/4
     PM------|               PM------|               PM-------
  E  E E E E E     S S S S E E E E E E   S S S S E E E E E E
|--------------||----------------------|---------------------|
|--------------||o---------------------|---------------------|
|--------------||----------------------|---------------------|
|--------------||----------------------|---------------------|
|--------------||o---------------------|-3-3-3-3-3s5---------|
|-6--0-x-0-x-0-||--5-5-5-5-6-0-x-0-x-0-|-------------x-0-x-0-|
|
|                            PM------|               PM-------
| H.               S S S S E E E E E E   S S S S E E E E E E
|--------------||----------------------|---------------------|
|--------------||o---------------------|---------------------|
|--------------||----------------------|---------------------|
|--------------||----------------------|---------------------|
|--------------||o---------------------|-3-3-3-3-3s5---------|
|--------------||--5-5-5-5-6-0-x-0-x-0-|-------------x-0-x-0-|


 ---|                       PM----|
  E E E E E E E E   E E E E E E E E    4x
|-----------------|--------------------||
|-----------------|-------------------o||
|-----5s8-8-8-8s5-|-5-5-5s7------------||
|-----x-x-x-x-x-x-|-x-x-x-x------------||
|-----3s6-6-6-6s3-|-3-3-3s5-----------o||
|-x-0-------------|---------x-0-x-0----||
|
|---|                       PM----|
| E E E E E E E E   E E E E E E E E    4x
|-----------------|--------------------||
|-----------------|-------------------o||
|-----5s8-8-8-8s5-|-5-5-5s7------------||
|-----x-x-x-x-x-x-|-x-x-x-x------------||
|-----3s6-6-6-6s3-|-3-3-3s5-----------o||
|-x-0-------------|---------x-0-x-0----||


   "Tonight if I die in my..."
    Slower Q=171
    Dm/F                                F5
    E E E E E E E E   E E E E E E E E   E E E E E E E E   E E E E E E E E
||------------------|-----------------|-----------------|------------------|
||o-----------------|-----------------|-----------------|------------------|
||------------------|-----------------|-----------------|------------------|
||--x-----3-x-----3-|-x-----3-x-----3-|-x-----3-x-----3-|-x-----3-x-----3--|
||o-x-5-x-5-x-5-x-5-|-x-5-x-5-x-5-x-5-|-x-3-x-3-x-3-x-3-|-x-3-x-3-x-3-x-3--|
||--x-3-x-3-x-3-x-3-|-x-3-x-3-x-3-x-3-|-x-3-x-3-x-3-x-3-|-x-3-x-3-x-3-x-3--|
|
|   E E E E E E E E   E E E E E E E E   E E E E E E E E   E E E E E E E E
||------------------|-----------------|-----------------|------------------|
||o-----------------|-----------------|-----------------|------------------|
||------------------|-----------------|-----------------|------------------|
||--x-----3-x-----3-|-x-----3-x-----3-|-x-----3-x-----3-|-x-----3-x-----3--|
||o-x-5-x-5-x-5-x-5-|-x-5-x-5-x-5-x-5-|-x-3-x-3-x-3-x-3-|-x-3-x-3-x-3-x-3--|
||--x-3-x-3-x-3-x-3-|-x-3-x-3-x-3-x-3-|-x-3-x-3-x-3-x-3-|-x-3-x-3-x-3-x-3--|


                                                               To Coda
  Bb5                                 F/A               G5
  E E E E E E E E   E E E E E E E E   E E E E E E E E   E E E E E E E E
|-----------------|-----------------|-----------------|------------------||
|-----------------|-----------------|-----------------|-----------------o||
|-----------------|-----------------|-----------------|-7-7-7-7-7-7-7-7--||
|-x-----8-x-----8-|-x-----8-x-----8-|-x-----7-x-----7-|-5-5-5-5-5-5-5-5--||
|-x-8-x-8-x-8-x-8-|-x-8-x-8-x-8-x-8-|-x-8-x-8-x-8-x-8-|-5-5-5-5-5-5-5-5-o||
|-x-8-x-8-x-8-x-8-|-x-8-x-8-x-8-x-8-|-x-7-x-7-x-7-x-7-|-5-5-5-5-5-5-5-5--||
|
| E E E E E E E E   E E E E E E E E   E E E E E E E E   E E E E E E E E
|-----------------|-----------------|-----------------|------------------||
|-----------------|-----------------|-----------------|-----------------o||
|-----------------|-----------------|-----------------|-7-7-7-7-7-7-7-7--||
|-x-----8-x-----8-|-x-----8-x-----8-|-x-----7-x-----7-|-5-5-5-5-5-5-5-5--||
|-x-8-x-8-x-8-x-8-|-x-8-x-8-x-8-x-8-|-x-8-x-8-x-8-x-8-|-5-5-5-5-5-5-5-5-o||
|-x-8-x-8-x-8-x-8-|-x-8-x-8-x-8-x-8-|-x-7-x-7-x-7-x-7-|-5-5-5-5-5-5-5-5--||


 "...Sleep..."
  A Tempo Q=190
  N.C.
 6/8             4/4
    PM------|               PM------|               PM-------
  E E E E E E     S S S S E E E E E E   S S S S E E E E E E
|-------------||----------------------|---------------------|
|-------------||o---------------------|---------------------|
|-------------||----------------------|---------------------|
|-------------||----------------------|---------------------|
|-------------||o---------------------|-3-3-3-3-3s5---------|
|-6-0-x-0-x-0-||--5-5-5-5-6-0-x-0-x-0-|-------------x-0-x-0-|
|
|   PM------|               PM------|               PM-------
| E E E E E E     S S S S E E E E E E   S S S S E E E E E E
|-------------||----------------------|---------------------|
|-------------||o---------------------|---------------------|
|-------------||----------------------|---------------------|
|-------------||----------------------|---------------------|
|-------------||o---------------------|-3-3-3-3-3s5---------|
|-6-0-x-0-x-0-||--5-5-5-5-6-0-x-0-x-0-|-------------x-0-x-0-|


 ---|                       PM----|
  E E E E E E E E   E E E E E E E E    4x
|-----------------|--------------------||
|-----------------|-------------------o||
|-----5s8-8-8-8s5-|-5-5-5s7------------||
|-----x-x-x-x-x-x-|-x-x-x-x------------||
|-----3s6-6-6-6s3-|-3-3-3s5-----------o||
|-x-0-------------|---------x-0-x-0----||
|
|---|                       PM----|
| E E E E E E E E   E E E E E E E E    4x
|-----------------|--------------------||
|-----------------|-------------------o||
|-----5s8-8-8-8s5-|-5-5-5s7------------||
|-----x-x-x-x-x-x-|-x-x-x-x------------||
|-----3s6-6-6-6s3-|-3-3-3s5-----------o||
|-x-0-------------|---------x-0-x-0----||


   "Tonight if I die in my..."
    Slower Q=171
    Dm/F                                F5
    E E E E E E E E   E E E E E E E E   E E E E E E E E   E E E E E E E E
||------------------|-----------------|-----------------|------------------|
||o-----------------|-----------------|-----------------|------------------|
||------------------|-----------------|-----------------|------------------|
||--x-----3-x-----3-|-x-----3-x-----3-|-x-----3-x-----3-|-x-----3-x-----3--|
||o-x-5-x-5-x-5-x-5-|-x-5-x-5-x-5-x-5-|-x-3-x-3-x-3-x-3-|-x-3-x-3-x-3-x-3--|
||--x-3-x-3-x-3-x-3-|-x-3-x-3-x-3-x-3-|-x-3-x-3-x-3-x-3-|-x-3-x-3-x-3-x-3--|
|
|   E E E E E E E E   E E E E E E E E   E E E E E E E E   E E E E E E E E
||------------------|-----------------|-----------------|------------------|
||o-----------------|-----------------|-----------------|------------------|
||------------------|-----------------|-----------------|------------------|
||--x-----3-x-----3-|-x-----3-x-----3-|-x-----3-x-----3-|-x-----3-x-----3--|
||o-x-5-x-5-x-5-x-5-|-x-5-x-5-x-5-x-5-|-x-3-x-3-x-3-x-3-|-x-3-x-3-x-3-x-3--|
||--x-3-x-3-x-3-x-3-|-x-3-x-3-x-3-x-3-|-x-3-x-3-x-3-x-3-|-x-3-x-3-x-3-x-3--|


  Bb5                                 F/A               G5
  E E E E E E E E   E E E E E E E E   E E E E E E E E   E E E E E E E E
|-----------------|-----------------|-----------------|------------------||
|-----------------|-----------------|-----------------|-----------------o||
|-----------------|-----------------|-----------------|-7-7-7-7-7-7-7-7--||
|-x-----8-x-----8-|-x-----8-x-----8-|-x-----7-x-----7-|-5-5-5-5-5-5-5-5--||
|-x-8-x-8-x-8-x-8-|-x-8-x-8-x-8-x-8-|-x-8-x-8-x-8-x-8-|-5-5-5-5-5-5-5-5-o||
|-x-8-x-8-x-8-x-8-|-x-8-x-8-x-8-x-8-|-x-7-x-7-x-7-x-7-|-5-5-5-5-5-5-5-5--||
|
| E E E E E E E E   E E E E E E E E   E E E E E E E E   E E E E E E E E
|-----------------|-----------------|-----------------|------------------||
|-----------------|-----------------|-----------------|-----------------o||
|-----------------|-----------------|-----------------|-7-7-7-7-7-7-7-7--||
|-x-----8-x-----8-|-x-----8-x-----8-|-x-----7-x-----7-|-5-5-5-5-5-5-5-5--||
|-x-8-x-8-x-8-x-8-|-x-8-x-8-x-8-x-8-|-x-8-x-8-x-8-x-8-|-5-5-5-5-5-5-5-5-o||
|-x-8-x-8-x-8-x-8-|-x-8-x-8-x-8-x-8-|-x-7-x-7-x-7-x-7-|-5-5-5-5-5-5-5-5--||


 Fill
  Faster Q=190
  D5
  W                W
|----------------|-----------------||
|----------------|-----------------||
|----------------|-----------------||
|----------------|-----------------||
|----------------|-----------------||
|----------------|-----------------||
|
| PM-----------------------------|
| E E E E E Q.     E E E E E E E E
|----------------|-----------------||
|----------------|-----------------||
|----------------|-----------------||
|----------------|-----------------||
|-0---0---0------|-0---0---0-0-0---||
|-0---0---0------|-0---0---0-0-0---||


 Breakdown
  PM---------------|   PM----------------------|
  E E E E E Q.     E E E E E E E E   E E E E E Q.
|----------------|-----------------|----------------|
|----------------|-----------------|----------------|
|----------------|-----------------|----------------|
|----------------|-----------------|----------------|
|-0---0---0------|-0---0---0-0-0---|-0---0---0------|
|-0---0---0------|-0---0---0-0-0---|-0---0---0------|
|
| PM---------------|   PM----------------------|
| E E E E E Q.     E E E E E E E E   E E E E E Q.
|----------------|-----------------|----------------|
|----------------|-----------------|----------------|
|----------------|-----------------|----------------|
|----------------|-----------------|----------------|
|-0---0---0------|-0---0---0-0-0---|-0---0---0------|
|-0---0---0------|-0---0---0-0-0---|-0---0---0------|


                                \5
  PM--------------------------|
  E E E E E E E E   E E E E E E S  S E   E E E E E E Q
|-----------------|--------------------|-----------------|
|-----------------|--------------------|-----------------|
|-----------------|-------------x--x-x-|-x-x-x-x-x-x-x---|
|-----------------|-------------x--x-x-|-x-x-x-x-x-x-x---|
|-0---0---0-0-0---|-0---0---0---x--x-x-|-x-x-x-x-x-x-x---|
|-0---0---0-0-0---|-0---0---0---x--x-x-|-x-x-x-x-x-x-x---|
|
|                               \5
| PM--------------------------|
| E E E E E E E E   E E E E E E S  S E   E E E E E E Q
|-----------------|--------------------|-----------------|
|-----------------|--------------------|-----------------|
|-----------------|-------------x--x-x-|-x-x-x-x-x-x-x---|
|-----------------|-------------x--x-x-|-x-x-x-x-x-x-x---|
|-0---0---0-0-0---|-0---0---0---x--x-x-|-x-x-x-x-x-x-x---|
|-0---0---0-0-0---|-0---0---0---x--x-x-|-x-x-x-x-x-x-x---|


  PM----------------------------------------------------------------|
  E E E E E Q.     E E E E E E E E   E E E E E Q.     E E E E E E E E
|----------------|-----------------|----------------|-----------------|
|----------------|-----------------|----------------|-----------------|
|----------------|-----------------|----------------|-----------------|
|----------------|-----------------|----------------|-----------------|
|-0---0---0------|-0---0---0-0-0---|-0---0---0------|-0---0---0-0-0---|
|-0---0---0------|-0---0---0-0-0---|-0---0---0------|-0---0---0-0-0---|
|
| PM----------------------------------------------------------------|
| E E E E E Q.     E E E E E E E E   E E E E E Q.     E E E E E E E E
|----------------|-----------------|----------------|-----------------|
|----------------|-----------------|----------------|-----------------|
|----------------|-----------------|----------------|-----------------|
|----------------|-----------------|----------------|-----------------|
|-0---0---0------|-0---0---0-0-0---|-0---0---0------|-0---0---0-0-0---|
|-0---0---0------|-0---0---0-0-0---|-0---0---0------|-0---0---0-0-0---|


                                                            D.S. al Coda
                                                 \5
  PM-------------------------------------------|
  E E E E E Q.     E E E E E E E E   E E E E E E S  S E   E E E E E E Q
|----------------|-----------------|--------------------|-----------------||
|----------------|-----------------|--------------------|-----------------||
|----------------|-----------------|-------------x--x-x-|-x-x-x-x-x-x-x---||
|----------------|-----------------|-------------x--x-x-|-x-x-x-x-x-x-x---||
|-0---0---0------|-0---0---0-0-0---|-0---0---0---x--x-x-|-x-x-x-x-x-x-x---||
|-0---0---0------|-0---0---0-0-0---|-0---0---0---x--x-x-|-x-x-x-x-x-x-x---||
|
|                                                \5
| PM-------------------------------------------|
| E E E E E Q.     E E E E E E E E   E E E E E E S  S E   E E E E E E Q
|----------------|-----------------|--------------------|-----------------||
|----------------|-----------------|--------------------|-----------------||
|----------------|-----------------|-------------x--x-x-|-x-x-x-x-x-x-x---||
|----------------|-----------------|-------------x--x-x-|-x-x-x-x-x-x-x---||
|-0---0---0------|-0---0---0-0-0---|-0---0---0---x--x-x-|-x-x-x-x-x-x-x---||
|-0---0---0------|-0---0---0-0-0---|-0---0---0---x--x-x-|-x-x-x-x-x-x-x---||


 Quiet part
  Slower Q=171
  &
  Dm/F                                F5
  W                 W                 W                 W
|-----------------|-----------------|-----------------|-----------------|
|-----------------|-----------------|-----------------|-----------------|
|-----------------|-----------------|-----------------|-----------------|
|-----------------|-----------------|-----------------|-----------------|
|-----------------|-----------------|-----------------|-----------------|
|-----------------|-----------------|-----------------|-----------------|
|
| E E E E E E E E   E E E E E E E E   E E E E E E E E   E E E E E E E E
|-----------------|-----------------|-----------------|-----------------|
|-----------------|-----------------|-----------------|-----------------|
|-----------------|-----------------|-----------------|-----------------|
|-3-3-3-3-3-3-3-3-|-3-3-3-3-3-3-3-3-|-3-3-3-3-3-3-3-3-|-3-3-3-3-3-3-3-3-|
|-5-5-5-5-5-5-5-5-|-5-5-5-5-5-5-5-5-|-3-3-3-3-3-3-3-3-|-3-3-3-3-3-3-3-3-|
|-3-3-3-3-3-3-3-3-|-3-3-3-3-3-3-3-3-|-3-3-3-3-3-3-3-3-|-3-3-3-3-3-3-3-3-|


  Bb5                                 F/A               G5
  W                 W                 W                 W
|-----------------|-----------------|-----------------|-----------------|
|-----------------|-----------------|-----------------|-----------------|
|-----------------|-----------------|-----------------|-----------------|
|-----------------|-----------------|-----------------|-----------------|
|-----------------|-----------------|-----------------|-----------------|
|-----------------|-----------------|-----------------|-----------------|
|
| E E E E E E E E   E E E E E E E E   E E E E E E E E   E E E E E E E E
|-----------------|-----------------|-----------------|-----------------|
|-----------------|-----------------|-----------------|-----------------|
|-----------------|-----------------|-----------------|-----------------|
|-8-8-8-8-8-8-8-8-|-8-8-8-8-8-8-8-8-|-7-7-7-7-7-7-7-7-|-5-5-5-5-5-5-5-5-|
|-8-8-8-8-8-8-8-8-|-8-8-8-8-8-8-8-8-|-8-8-8-8-8-8-8-8-|-5-5-5-5-5-5-5-5-|
|-8-8-8-8-8-8-8-8-|-8-8-8-8-8-8-8-8-|-7-7-7-7-7-7-7-7-|-5-5-5-5-5-5-5-5-|


  Dm/F                                F5
  E E E E E E E E   E E E E E E E E   E E E E E E E E   E E E E E E E E
|-----------------|-----------------|-----------------|-----------------|
|-----------------|-----------------|-----------------|-----------------|
|-----------------|-----------------|-----------------|-----------------|
|-3-3-3-3-3-3-3-3-|-3-3-3-3-3-3-3-3-|-3-3-3-3-3-3-3-3-|-3-3-3-3-3-3-3-3-|
|-5-5-5-5-5-5-5-5-|-5-5-5-5-5-5-5-5-|-3-3-3-3-3-3-3-3-|-3-3-3-3-3-3-3-3-|
|-3-3-3-3-3-3-3-3-|-3-3-3-3-3-3-3-3-|-3-3-3-3-3-3-3-3-|-3-3-3-3-3-3-3-3-|
|
| E E E E E E E E   E E E E E E E E   E E E E E E E E   E E E E E E E E
|-----------------|-----------------|-----------------|-----------------|
|-----------------|-----------------|-----------------|-----------------|
|-----------------|-----------------|-----------------|-----------------|
|-3-3-3-3-3-3-3-3-|-3-3-3-3-3-3-3-3-|-3-3-3-3-3-3-3-3-|-3-3-3-3-3-3-3-3-|
|-5-5-5-5-5-5-5-5-|-5-5-5-5-5-5-5-5-|-3-3-3-3-3-3-3-3-|-3-3-3-3-3-3-3-3-|
|-3-3-3-3-3-3-3-3-|-3-3-3-3-3-3-3-3-|-3-3-3-3-3-3-3-3-|-3-3-3-3-3-3-3-3-|


  Bb5                                 F/A               G5
  E E E E E E E E   E E E E E E E E   E E E E E E E E   E E E E E E E E
|-----------------|-----------------|-----------------|-----------------|
|-----------------|-----------------|-----------------|-----------------|
|-----------------|-----------------|-----------------|-----------------|
|-8-8-8-8-8-8-8-8-|-8-8-8-8-8-8-8-8-|-7-7-7-7-7-7-7-7-|-5-5-5-5-5-5-5-5-|
|-8-8-8-8-8-8-8-8-|-8-8-8-8-8-8-8-8-|-8-8-8-8-8-8-8-8-|-5-5-5-5-5-5-5-5-|
|-8-8-8-8-8-8-8-8-|-8-8-8-8-8-8-8-8-|-7-7-7-7-7-7-7-7-|-5-5-5-5-5-5-5-5-|
|
| E E E E E E E E   E E E E E E E E   E E E E E E E E   E E E E E E E E
|-----------------|-----------------|-----------------|-----------------|
|-----------------|-----------------|-----------------|-----------------|
|-----------------|-----------------|-----------------|-----------------|
|-8-8-8-8-8-8-8-8-|-8-8-8-8-8-8-8-8-|-7-7-7-7-7-7-7-7-|-5-5-5-5-5-5-5-5-|
|-8-8-8-8-8-8-8-8-|-8-8-8-8-8-8-8-8-|-8-8-8-8-8-8-8-8-|-5-5-5-5-5-5-5-5-|
|-8-8-8-8-8-8-8-8-|-8-8-8-8-8-8-8-8-|-7-7-7-7-7-7-7-7-|-5-5-5-5-5-5-5-5-|


    A Tempo Q=190
    N.C.
    Gtr I
               PM------|                  PM-------
     S S S S E E E E E E     S  S S S E E E E E E
||-----------------------|------------------------|
||o----------------------|------------------------|
||-----------------------|------------------------|
||-----------------------|------------------------|
||o----------------------|---3--3-3-3-3s5---------|
||---5-5-5-5-6-0-x-0-x-0-|----------------x-0-x-0-|
|
|   Gtr II
|              PM------|                  PM-------
|    S S S S E E E E E E     S  S S S E E E E E E
||-----------------------|------------------------|
||o----------------------|------------------------|
||-----------------------|------------------------|
||-----------------------|------------------------|
||o----------------------|---3--3-3-3-3s5---------|
||---5-5-5-5-6-0-x-0-x-0-|----------------x-0-x-0-|
|
|   Gtr III
|    W                      +W
||-----------------------|------------------------|
||o-18-------------------|-(18)-------------------|
||-----------------------|------------------------|
||--15-------------------|-(15)-------------------|
||o----------------------|------------------------|
||-----------------------|------------------------|


 ----|                          PM----|
   E E E E E E E E     E  E E E E E E E
|------------------|---------------------|
|------------------|---------------------|
|------5s8-8-8-8s5-|---5--5-5s7----------|
|------x-x-x-x-x-x-|---x--x-x-x----------|
|------3s6-6-6-6s3-|---3--3-3s5----------|
|--x-0-------------|------------x-0-x-0--|
|
|----|                          PM----|
|  E E E E E E E E     E  E E E E E E E
|------------------|---------------------|
|------------------|---------------------|
|------5s8-8-8-8s5-|---5--5-5s7----------|
|------x-x-x-x-x-x-|---x--x-x-x----------|
|------3s6-6-6-6s3-|---3--3-3s5----------|
|--x-0-------------|------------x-0-x-0--|
|
|  W                  +W
|------------------|---------------------|
|-17---------------|-(17)----------------|
|------------------|---------------------|
|-14---------------|-(14)----------------|
|------------------|---------------------|
|------------------|---------------------|


  N.C.
             PM------|                  PM-------
   S S S S E E E E E E     S  S S S E E E E E E
|----------------------|------------------------|
|----------------------|------------------------|
|----------------------|------------------------|
|----------------------|------------------------|
|----------------------|---3--3-3-3-3s5---------|
|--5-5-5-5-6-0-x-0-x-0-|----------------x-0-x-0-|
|
|            PM------|                  PM-------
|  S S S S E E E E E E     S  S S S E E E E E E
|----------------------|------------------------|
|----------------------|------------------------|
|----------------------|------------------------|
|----------------------|------------------------|
|----------------------|---3--3-3-3-3s5---------|
|--5-5-5-5-6-0-x-0-x-0-|----------------x-0-x-0-|
|
|  W                      +W
|-18-------------------|-(18)-------------------|
|----------------------|------------------------|
|-15-------------------|-(15)-------------------|
|----------------------|------------------------|
|----------------------|------------------------|
|----------------------|------------------------|


 ----|                        PM----|
   E E E E E E E E    E E E E E E E E
|------------------|-------------------||
|------------------|------------------o||
|------5s8-8-8-8s5-|--5-5-5s7----------||
|------x-x-x-x-x-x-|--x-x-x-x----------||
|------3s6-6-6-6s3-|--3-3-3s5---------o||
|--x-0-------------|----------x-0-x-0--||
|
|----|                        PM----|
|  E E E E E E E E    E E E E E E E E
|------------------|-------------------||
|------------------|------------------o||
|------5s8-8-8-8s5-|--5-5-5s7----------||
|------x-x-x-x-x-x-|--x-x-x-x----------||
|------3s6-6-6-6s3-|--3-3-3s5---------o||
|--x-0-------------|----------x-0-x-0--||
|
|  W                  W
|-17---------------|-------------------||
|------------------|-20---------------o||
|-14---------------|-------------------||
|------------------|-17----------------||
|------------------|------------------o||
|------------------|-------------------||


   "I'll look at you with the..."
    D5
    Gtr I
    PM----------------------------------------------------------------|
    E E E E E Q.     E E E E E E E E   E E E E E Q.     E E E E E E E E
||-----------------|-----------------|----------------|------------------|
||o----------------|-----------------|----------------|------------------|
||-----------------|-----------------|----------------|------------------|
||-----------------|-----------------|----------------|------------------|
||o-0---0---0------|-0---0---0-0-0---|-0---0---0------|-0---0---0-0-0----|
||--0---0---0------|-0---0---0-0-0---|-0---0---0------|-0---0---0-0-0----|
|
|   Gtr II
|   PM----------------------------------------------------------------|
|   E E E E E Q.     E E E E E E E E   E E E E E Q.     E E E E E E E E
||-----------------|-----------------|----------------|------------------|
||o----------------|-----------------|----------------|------------------|
||-----------------|-----------------|----------------|------------------|
||-----------------|-----------------|----------------|------------------|
||o-0---0---0------|-0---0---0-0-0---|-0---0---0------|-0---0---0-0-0----|
||--0---0---0------|-0---0---0-0-0---|-0---0---0------|-0---0---0-0-0----|


  D5
                                                 \5
  PM-----------------------------------------|
  E E E E E Q.     E E E E E E E E   E E E E E E S  S E   E E E E E E Q
|----------------|-----------------|--------------------|------------------||
|----------------|-----------------|--------------------|-----------------o||
|----------------|-----------------|-------------x--x-x-|-x-x-x-x-x-x-x----||
|----------------|-----------------|-------------x--x-x-|-x-x-x-x-x-x-x----||
|-0---0---0------|-0---0---0-0-0---|-0---0---0---x--x-x-|-x-x-x-x-x-x-x---o||
|-0---0---0------|-0---0---0-0-0---|-0---0---0---x--x-x-|-x-x-x-x-x-x-x----||
|
|                                                \5
| PM-------------------------------------------|
| E E E E E Q.     E E E E E E E E   E E E E E E S  S E   E E E E E E Q
|----------------|-----------------|--------------------|------------------||
|----------------|-----------------|--------------------|-----------------o||
|----------------|-----------------|-------------x--x-x-|-x-x-x-x-x-x-x----||
|----------------|-----------------|-------------x--x-x-|-x-x-x-x-x-x-x----||
|-0---0---0------|-0---0---0-0-0---|-0---0---0---x--x-x-|-x-x-x-x-x-x-x---o||
|-0---0---0------|-0---0---0-0-0---|-0---0---0---x--x-x-|-x-x-x-x-x-x-x----||


  D5
  PM--------|
  E E E E E Q.     Wx2
|----------------|--------*|
|----------------|--------*|
|----------------|--------*|
|----------------|--------*|
|-0---0---0------|--------*|
|-0---0---0------|--------*|
|
| PM--------|
| E E E E E Q.     Wx2
|----------------|--------*|
|----------------|--------*|
|----------------|--------*|
|----------------|--------*|
|-0---0---0------|--------*|
|-0---0---0------|--------*|


Duration Legend
---------------
W - whole; H - half; Q - quarter; E - 8th; S - 16th; T - 32nd; X - 64th; a - acciaccatura
+ - note tied to previous; . - note dotted; .. - note double dotted
Uncapitalized letters represent notes that are staccato (1/2 duration)
Irregular groupings are notated above the duration line
Duration letters will always appear directly above the note/fret number it represents the
duration for.  Duration letters with no fret number below them represent rests.  Multi-
bar rests are notated in the form Wxn, where n is the number of bars to rest for.  Low
melody durations appear below the staff

Tablature Legend
----------------
 h   - hammer-on
 p   - pull-off
 b   - bend
 pb  - pre-bend
 r   - bend release (if no number after the r, then release immediately)
 /\  - slide into or out of (from/to "nowhere")
 s   - legato slide
 S   - shift slide
  - natural harmonic
[n]  - artificial harmonic
n(n) - tapped harmonic
 ~   - vibrato
 tr  - trill
 T   - tap
 TP  - trem. picking
 PM  - palm muting
\n/  - tremolo bar dip; n = amount to dip
 \n  - tremolo bar down
 n/  - tremolo bar up
/n\  - tremolo bar inverted dip
 =   - hold bend; also acts as connecting device for hammers/pulls
 <>  - volume swell (louder/softer)
 x   - on rhythm slash represents muted slash
 o   - on rhythm slash represents single note slash

Misc Legend
-----------
 |  - bar
||  - double bar
||o - repeat start
o|| - repeat end
*|  - double bar (ending)
 :  - bar (freetime)
 $  - Segno
 &  - Coda
Tempo markers -  = BPM(8/16=s8/s16), where s8 = swing 8ths, s16 = swing 16ths
Добавлено: 30.07.2012
Другие материалы по этой песне:

Страница создана 15.03.2012
http://primanota.ru/bury-your-dead/mirror-mirror-chords.htm
Привет, Гость.
Предлагаем пройти революционный курс по гитаре.
Подарок от PrimaNota.Ru, забирай!