PrimaNota.ru - самый крупный в мире бесплатный архив песенных текстов, аккордов, табулатур и нот


Bury Your Dead - Fever Dream - таба, видео

Регистрация Запомнить меня
Войти через:  Facebook Google Twitter Vk Yandex Mail.ru

Bury Your Dead - Fever Dream - таба, видео

Печатать
Просмотров: 149
Bury Your Dead
Fever Dream

Tabbed By: Jonathan Cullis

Note: This song is so groove oriented you will have to listen to the song for the timing

Tuning: Drop A

|----------------------------------------------------------------------------|
|----------------------------------------------------------------------------|
|----------------------------------------------------------------------------|
|--7-5-7-------7-5--5--5--5-10-3-3-3-3-3-5-5-5-5-5---------------------------|
|--5-3-5-0-0-0-5-3--3--3--3-8--1-1-1-1-1-3-3-3-3-3---------------------------|
|----------------------------------------------------------------------------|

|----------------------------------------------------------------------------|
|----------------------------------------------------------------------------|
|----------------------------------------------------------------------------|
|--7-5-7-------7-5--5--5--5-10-3-3-3-3-5-2-2-2-2-2---------------------------| x2
|--5-3-5-0-0-0-5-3--3--3--3-8--1-1-1-1-3-0-0-0-0-0---------------------------|
|----------------------------------------------------------------------------|

|----------------------------------------------------------------------------|
|----------------------------------------------------------------------------|
|----------------------------------------------------------------------------|
|----------------------------------------------------------------------------| x4
|----------------------------------------------------------------------------|
|--12-10-12-0-0-0-12-10-10-10-10-10-12-10-10-10-8-8-8-8-10-7-7-7-7-----------|

|----------------------------------------------------------------------------|
|----------------------------------------------------------------------------|
|----------------------------------------------------------------------------|
|----------------------------------------------------------------------------| x4
|--4--3--4------------4--3--4-----------------4--3--4-----------4-3-4-1-2-3--|
|--4--3--4--0-0--0-0--4--3--4--0-0--0-0--0-0--4--3--4--0-0--0-0-4-3-4-1-2-3--|

|----------------------------------------------------------------------------|
|----------------------------------------------------------------------------|
|----------------------------------------------------------------------------|
|--7-5-7-------7-5--5--5--5-10-3-3-3-3-5-2-2-2-2-2---------------------------| x4
|--5-3-5-0-0-0-5-3--3--3--3-8--1-1-1-1-3-0-0-0-0-0---------------------------|
|----------------------------------------------------------------------------|

|----------------------------------------------------------------------------|
|----------------------------------------------------------------------------|
|----------------------------------------------------------------------------|
|----------------------------------------------------------------------------| x4
|----------------------------------------------------------------------------|
|--12-10-12-0-0-0-12-10-10-10-10-10-12-10-10-10-8-8-8-8-10-7-7-7-7-----------|

|----------------------------------------------------------------------------|
|----------------------------------------------------------------------------|
|----------------------------------------------------------------------------|
|----------------------------------------------------------------------------| x2
|--4--3--4------------4--3--4-----------------4--3--4-----------4-3-4-1-2-3--|
|--4--3--4--0-0--0-0--4--3--4--0-0--0-0--0-0--4--3--4--0-0--0-0-4-3-4-1-2-3--|

|----------------------------------------------------------------------------|
|----------------------------------------------------------------------------|
|----------------------------------------------------------------------------|
|--7-5-7-------7-5--5--5--5-10-3-3-3-3-5-2-2-2-2-2---------------------------| x4
|--5-3-5-0-0-0-5-3--3--3--3-8--1-1-1-1-3-0-0-0-0-0---------------------------|
|----------------------------------------------------------------------------|

|----------------------------------------------------------------------------|
|----------------------------------------------------------------------------|
|----------------------------------------------------------------------------|
|----------------------------------------------------------------------------| 
|--4--3--4------------4--3--4-----------------4--3--4-----------4-3-4-1-2-3--|
|--4--3--4--0-0--0-0--4--3--4--0-0--0-0--0-0--4--3--4--0-0--0-0-4-3-4-1-2-3--|

|----------------------------------------------------------------------------|
|----------------------------------------------------------------------------|
|----------------------------------------------------------------------------|
|----------------------------------------------------------------------------| x2
|--4--3--4-------------------------------------------------------------------|
|--4--3--4--0-0--0-0--0-0----0--0--0-0-0-------------------------------------|

|----------------------------------------------------------------------------|
|----------------------------------------------------------------------------|
|----------------------------------------------------------------------------|
|----------------------------------------------------------------------------|
|--4--3--4-------------------------------------------------------------------|
|--4--3--4--0-0--0-0--0-0----0-0--0-0--0-0----0-0--0-0--0-0----0-0--0-0--0-0-|
Добавлено: 14.03.2012
Другие материалы по этой песне:

Страница создана 13.03.2012
http://primanota.ru/bury-your-dead/fever-dream-chords.htm
Привет, Гость.
Предлагаем пройти революционный курс по гитаре.
Подарок от PrimaNota.Ru, забирай!