PrimaNota.ru - самый крупный в мире бесплатный архив песенных текстов, аккордов, табулатур и нот


Bury Your Dead - Broken Body - таба, видео

Регистрация Запомнить меня
Войти через:  Facebook Google Twitter Vk Yandex Mail.ru

Bury Your Dead - Broken Body - таба, видео

Печатать
Просмотров: 123
-------------------------------------------------------------------------------
                             BROKEN BODY - Bury Your Dead
-------------------------------------------------------------------------------
Tabbed by: 8random8hero8
Email: sideburn777@yahoo.com

Tuning: Drop A# tuning

Intro
C |-------------------------------------------------------------------------|
G#|-------------------------------------------------------------------------|
D#|-------------------------------------------------------------------------|
A#|-------------------------------------------------------------------------|
F |-----------------------5-3-5-3-5--------------------------5-3-6-6-6-6-6-6|
A#|-0-1-2-3--0-1-2-3--0-0--0-0-0-0-0---0-1-2-3--0-1-2-3--0-0--0-0-----------|
    h        h                         h        h                (play twice)

Verse Guitar A (Slim)right speaker
C |-------------------------------------------------------------------------|
G#|-------------------------------------------------------------------------|
D#|---------------------------------------------------------------------6666|
A#|-------------------------------------------------------------------------|
F |-0-1-2-3--0-1-2-3--------------------0-1-2-3--0-1-2-3----------------5555|
A#|-0-1-2-3--0-1-2-3-00-00-00-00-00-00--0-1-2-3--0-1-2-3-00-00-00-00-00-----|
    h        h       ** ** ** ** ** **  h        h        ** ** ** ** ** 
                                                                 (play twice)
Verse Guitar B (Towning)left speaker
C |-------------------------------------------------------------------------|
G#|-------------------------------------------------------------------------|
D#|---------------------------------------------------------------------6666|
A#|-------------------------------------------------------------------------|
F |-0-1-2-3--0-1-2-3---xx-xx-xx-xx-xx-xx0-1-2-3--0-1-2-3--xx-xx-xx-xx-xx5555|
A#|-0-1-2-3--0-1-2-3---xx-xx-xx-xx-xx-xx0-1-2-3--0-1-2-3--xx-xx-xx-xx-xx----|
    h        h                          h        h        
                                                                 (play twice)
Verse
C |-------------------------------------------------------------------------|
G#|-------------------------------------------------------------------------|
D#|-------------------------------------------------------------------------|
A#|-------------------------------------------------------------------------|
F |-----------------------5-3-5-3-5--------------------------5-3-6-6-6-6-6-6|
A#|-0-1-2-3--0-1-2-3--0-0--0-0-0-0-0---0-1-2-3--0-1-2-3--0-0--0-0-----------|
    h        h                         h        h                (play twice)

Verse
C |-------------------------------------------------------------------------|
G#|-------------------------------------------------------------------------|
D#|---------------------------------------------------------------------6666|
A#|-------------------------------------------------------------------------|
F |-0-1-2-3--0-1-2-3--------------------0-1-2-3--0-1-2-3----------------5555|
A#|-0-1-2-3--0-1-2-3--00-00-00-00-00-00-0-1-2-3--0-1-2-3--00-00-00-00-00----|
    h        h        ** ** ** ** ** ** h        h        ** ** ** ** ** **
                                                                  play twice)
Chorus
C |------------------------------------|
G#|------------------------------------|
D#|----------7-7-7-7--9-9-9-9----------|
A#|-8-8-8-8--7-7-7-7--9-9-9-9--5-5-5-5-|
F |-8-8-8-8--5-5-5-5--7-7-7-7--5-5-5-5-|
A#|-8-8-8-8--------------------5-5-5-5-|
                           (play twice)

Verse 2
C |-------------------------------------------------------------------------|
G#|-------------------------------------------------------------------------|
D#|-------------------------------------------------------------------------|
A#|-------------------------------------------------------------------------|
F |-----------------------5-3-5-3-5--------------------------5-3-6-6-6-6-6-6|
A#|-0-1-2-3--0-1-2-3--0-0--0-0-0-0-0---0-1-2-3--0-1-2-3--0-0--0-0-----------|
    h        h                         h        h                (play twice)

C |-------------------------------------------------------------------------|
G#|-------------------------------------------------------------------------|
D#|---------------------------------------------------------------------6666|
A#|-------------------------------------------------------------------------|
F |-0-1-2-3--0-1-2-3--------------------0-1-2-3--0-1-2-3----------------5555|
A#|-0-1-2-3--0-1-2-3--00-00-00-00-00-00-0-1-2-3--0-1-2-3--00-00-00-00-00----|
    h        h        ** ** ** ** ** ** h        h        ** ** ** ** ** **
                                                                  play twice)

C |-------------------------------------------------------------------------|
G#|-------------------------------------------------------------------------|
D#|-------------------------------------------------------------------------|
A#|-------------------------------------------------------------------------|
F |-----------------------5-3-5-3-5--------------------------5-3-6-6-6-6-6-6|
A#|-0-1-2-3--0-1-2-3--0-0--0-0-0-0-0---0-1-2-3--0-1-2-3--0-0--0-0-----------|
    h        h                         h        h                (play twice)

Chorus and Solo
C |------------------------------------|
G#|------------------------------------|
D#|----------7-7-7-7--9-9-9-9----------|
A#|-8-8-8-8--7-7-7-7--9-9-9-9--5-5-5-5-|
F |-8-8-8-8--5-5-5-5--7-7-7-7--5-5-5-5-|
A#|-8-8-8-8--------------------5-5-5-5-|
                               (play 8x)

Off Tempo (didn't have my guitar next me, but just a variation of the verse)
C |-------------------------------------------------------------------------|
G#|-------------------------------------------------------------------------|
D#|-------------------------------------------------------------------------|
A#|-------------------------------------------------------------------------|
F |---1-1----------------5-3-6-6---------------------------------6-6-6-6-6-6|
A#|-0-1-1--0---0-0--0-------------------0-1-2-0-0--0-0----------------------|
                                                                 (play twice)

Breakdown
C |--------------------------------------|
G#|--------------------------------------|
D#|--------------------------------------|
A#|--------------------------------------|
F |-0-1-2-3--0-1-4-3-00-00-00-0-000-00---|
A#|-0-1-2-3--0-1-4-3-00-00-00-0-000-00---|
                     ** ** ** * *** **                                       


| /  slide up
| \  slide down
| h  hammer-on
| p  pull-off
| ~  vibrato
| +  harmonic
| x  Mute note
| *  Palm Mute
=============================================================================
Добавлено: 02.07.2012
Другие материалы по этой песне:

Страница создана 22.02.2012
http://primanota.ru/bury-your-dead/broken-body-chords.htm
Привет, Гость.
Предлагаем пройти революционный курс по гитаре.
Подарок от PrimaNota.Ru, забирай!