PrimaNota.ru - самый крупный в мире бесплатный архив песенных текстов, аккордов, табулатур и нот


Bury Tomorrow - These Woods Arent Safe For Us - текст песни, таба, видео

Регистрация Запомнить меня
Войти через:  Facebook Google Twitter Vk Yandex Mail.ru

Bury Tomorrow - These Woods Arent Safe For Us - текст песни, таба, видео

Печатать
Просмотров: 210
Right now this is just for guitar 1 (Apart from very last tab section), 
I was too lazy to do guitar 2 when it's not that different, 
only difference is the interlude is played by guitar 2 when the bridge comes in 
(At least I think, it would get boring for guitar 1 to play that for like 1 minute lol) 
And there's a slight difference in the octave chords, 
I'm sure you can work it out if you want. 
Strum patterns aren't perfect, but close. So enjoy...

INTRO
|-------------------------------------------------------------|
|-------------------------------------------------------------|
|-------------6-----------------6-----------------6------9/11-|
|-4-4------0-6-7-4--4-4------0-6-7-4--4-4------0-6-7-4-2-x--x-|
|-4-4-4-4-0---------4-4-4-4-0---------4-4-4-4-0--------2-7/-9-|
|-4-4-4-4-----------4-4-4-4-----------4-4-4-4----------2------|
PT.2      .. .              .. .              .. . 
|-----------------------------------------------------------|
|-----------------------------------------------------------|
|-------------6-----------------6-----------------6------11-|
|-4-4------0-6-7-4--4-4------0-6-7-4--4-4------0-6-7-4-2--x-|
|-4-4-4-4-0---------4-4-4-4-0---------4-4-4-4-0--------2--9-|
|-4-4-4-4-----------4-4-4-4-----------4-4-4-4----------2----|
          .. .              .. .              .. . 

CHORUS (X2)
|------------------------|
|------------------------|
|------------------------| x2
|-4444444-4--44444-4-4-4-|
|-4444444-4--44444-4-4-4-|
|-4444444-4--44444-4-4-4-|
  ....... .  ..... . . .
PT.2
|------------------------------------------------|
|------------------------------------------------|
|------------------------------------------------|
|-0000000-0--00000-0-0-0--0000000-0--00000-2-2-2-|
|-0000000-0--00000-0-0-0--0000000-0--00000-2-2-2-|
|-0000000-0--00000-0-0-0--0000000-0--00000-2-2-2-|
  ....... .  ..... . . .  ....... .  ..... . . .

VERSE
|-----------------------------------------------------|
|-----------------------------------------------------|
|--------7-----------------------7--------------------|
|-7--9-10-10-9-7--7--9-------9-10-10-9-7--7--9--------|
|---------------------7-9-7-9-------------------7-9-7-|
|-----------------------------------------------------|
PT.2
|-------------------------------------------12-|
|---------------9-10-9----------------9-10-9---|
|--------11-9-11------9--------11-9-11---------|
|-9-11-12---------------9-11-12----------------|
|----------------------------------------------|
|----------------------------------------------|

Repeat VERSE pt 1 and 2

VERSE PT.3
|--------------------|
|--------------------|
|--------9-----------|
|-44-4-4-x-----------|
|-44-4-4-7-444444444-|
|-44-4-4---444444444-|
           .........
VERSE PT.4 (x2)
|----------------------------------------------|
|----------------------------------------------|
|-1414-13-14-1818181818--1414-13-14-1111111111-|
|--x-x--x--x--x-x-x-x-x---x-x--x--x--x-x-x-x-x-|
|-1212-11-12-1616161616--1212-11-12--9-9-9-9-9-|
|----------------------------------------------|

|-------------------------------------------------|
|-------------------------------------------------|
|-1414-13-14-181818181818-191919-18-16-1818181818-|
|--x-x--x--x--x-x-x-x-x-x--x-x-x--x--x--x-x-x-x-x-|
|-1212-11-12-161616161616-171717-16-14-1414141414-|
|-------------------------------------------------|

|--------------------------|
|--------------------------|
|--------------------------|
|--------------------------|
|-44444444444-444444-4-4-4-|
|-44444444444-444444-4-4-4-|
  ........... ...... . . .

CHORUS 2 (x2)
|--------------------------|
|--------------------------|
|--------------------------| x2
|--------------------------|
|-44444444444-444444-4-4-4-|
|-44444444444-444444-4-4-4-|
  ........... ...... . . .
PT.2
|----------------------------------------------------|
|----------------------------------------------------|
|----------------------------------------------------|
|----------------------------------------------------|
|-00000000000-000000-0-0-0--00000000000-000000-2-2-2-|
|-00000000000-000000-0-0-0--00000000000-000000-2-2-2-|
  ........... ...... . . .  ........... ...... . . .

INTERLUDE (X4)
|------------------------------------------|
|-7---7---7---7---7----7---7---7---7---7---|
|--9---9---9---9---9----9---9---9---9---9--|
|---7---7---7---7---7----7---7---7---7---7-|
|------------------------------------------|
|------------------------------------------|
PT.2
|--------------------------------------|
|-10--10--10--10--10---9--9--9--9--9---|
|---9---9---9---9---9---9--9--9--9--9--|
|----7---7---7---7---7---7--7--7--7--7-|
|--------------------------------------|
|--------------------------------------|

BRIDGE (Let ring all apart from last power chord)
|----------------------------------------------------------------------|
|----------------------------------------------------------------------|
|----------------------------------------------------------------------|
|-4-44444-4-44444--0-0-0-0-0000--444-4-44444--0-0-0-0----------------4-|
|-4-44444-4-44444--0-0-0-0-0000--444-4-44444--0-0-0-0-00000000000000-4-|
|-4-44444-4-44444--0-0-0-0-0000--444-4-44444--0-0-0-0-00000000000000-4-|
                   . . .   ...   ...          . . .   ..............

CHORUS 3 (On EP version the pinches are on G string- 
& third pinch is on 2nd fret middle C)
|------------------------------------------|
|------------------------------------------|
|------------------------------------------| x2
|------------------------------------------|
|-00000000-000-0-0-----00000000-000-0-0-3b-|
|-00000000-000-0-0-3*--00000000-000-0-0----|
  ........ ... . .     ........ ... . .
|---------------------------------------------|
|---------------------------------------------|
|---------------------------------------------|
|---------------------------------------------|
|-0000000000-000-0-0----0000000000-000-0-0-3b-|
|-0000000000-000-0-0-3*-0000000000-000-0-0----|
  .......... ... . .    .......... ... . .
|---------------------------------------------|
|---------------------------------------------|
|---------------------------------------------|
|---------------------------------------------|
|-000000000-000-0-0-----0000000000-00-0-0-0-0-|
|-000000000-000-0-0-3*--0000000000-00-0-0-0-0-|
  ......... ... . .     .......... .. . . . .

OUTRO
|-------------------------------------------------------------|
|-------------------------------------------------------------|
|-18181818181818-18181818181818-18181818181818-16161616161616-|
|--x-x-x-x-x-x-x--x-x-x-x-x-x-x--x-x-x-x-x-x-x--x-x-x-x-x-x-x-|
|-16161616161616-16161616161616-16161616161616-14141414141414-|
|-------------------------------------------------------------|

|-------------------------------------------------------------|
|-------------------------------------------------------------|
|-14141414141414-14141414141414-14141414141414-14141414141414-|
|--x-x-x-x-x-x-x--x-x-x-x-x-x-x--x-x-x-x-x-x-x--x-x-x-x-x-x-x-|
|-12121212121212-12121212121212-12121212121212-12121212121212-|
|-------------------------------------------------------------|

|-------------------------------------------------------------|
|-------------------------------------------------------------|
|-14141414141414-13131313131313-11111111111111--9-9-9-9-9-9-9-|
|--x-x-x-x-x-x-x--x-x-x-x-x-x-x--x-x-x-x-x-x-x--x-x-x-x-x-x-x-|
|-12121212121212-11111111111111--9-9-9-9-9-9-9--7-7-7-7-7-7-7-|
|-------------------------------------------------------------|

|--------------------------------------------------------------------------|
|--------------------------------------------------------------------------|
|-11111111-13131313-14141414-16161616-1818181818181818-19191919-18-1616----|
|--x-x-x-x--x-x-x-x--x-x-x-x--x-x-x-x--x-x-x-x-x-x-x-x--x-x-x-x--x--x-x-4~-|
|--9-9-9-9-11111111-12121212-14141414-1616161616161616-17171717-16-1414-4~-|
|-----------------------------------------------------------------------4~-|
Добавлено: 22.04.2012
Другие материалы по этой песне:

Страница создана 13.03.2012
http://primanota.ru/bury-tomorrow/these-woods-arent-safe-for-us-chords.htm
Привет, Гость.
Предлагаем пройти революционный курс по гитаре.
Подарок от PrimaNota.Ru, забирай!