PrimaNota.ru - самый крупный в мире бесплатный архив песенных текстов, аккордов, табулатур и нот


Burnside R L - Like a bird without a feather - таба, видео

Регистрация Запомнить меня
Войти через:  Facebook Google Twitter Vk Yandex Mail.ru

Burnside R L - Like a bird without a feather - таба, видео

Печатать
Просмотров: 93


Tuning is the biggest factor.  Luckily
I have a good ear.  Ok here goes but I didn't
put the words to it.  It's blues and if
you hear the song then you can figure out
where to put them.

tuning

1    	2	3	4	5	6
C#	G#	E	B	G#	C#


this is the basics of the song.  like i said once
you get the first part of the song you should be
able to figure the rest out but i will add more as
i get better at it.  it's a real fun song so enjoy.


-----------------------------------------------
-----------------------------------------------
--------------2(b)-0------------------2(b)-0---
-----0------0----------------0------0----------
-0-2----0-2--------------0-2----0-2------------
--------------------0-----------------------0--



-----------------------------------------------
-----3-----------------------------------------
-1-1-1-1---------------2(b)-0------------------
-2-2-2-2-----0------0--------------------------
-2-2-2-2--0-2----0-2---------------------------
------------------------------0----------------

bigkrazie76@yahoo.com if you have corrections or
beefs.  remember though without this you ain't
got diddley.

Добавлено: 21.10.2013
Другие материалы по этой песне:
  • Аккорды и текст

Страница создана 21.10.2013
http://primanota.ru/burnside-r-l/like-a-bird-without-a-feather-chords.htm
Привет, Гость.
Предлагаем пройти революционный курс по гитаре.
Подарок от PrimaNota.Ru, забирай!