PrimaNota.ru - самый крупный в мире бесплатный архив песенных текстов, аккордов, табулатур и нот


Burnside R L - Just Like A Bird Without A Feather - таба, видео

Регистрация Запомнить меня
Войти через:  Facebook Google Twitter Vk Yandex Mail.ru

Burnside R L - Just Like A Bird Without A Feather - таба, видео

Печатать
Просмотров: 93
R L Burnside - Just Like a Bird Without a Feather

Tabbed by Vermox

The actual recording is tuned far lower than the standard tuning. The low E is somewhere 
around C which makes the strings easier to bend.
Listen to the recording to get the actual tuning if you want to play it in the same key.


e:---------------------------------------------------0-0-0-0-----|
B:-------------------------------------------------5-5-5-5-5-----|
G:--------------2bp0----------------------2bp0-------------------|
D:-----0-----0-------2-----------0-----0-------2-----------------|
A:-0h2---0h2-----------------0h2---0h2---------------------------|
E:---------------------0-------------------------0---------0-----|

Just like a bird without a feather

e:---3b-0---3-3b-0-----------------------------------------------|
B:--------3------------------------------------------------------|
G:---------------------------------------------------------------|
D:-----------------------0h2p0h2p0h2--------0h2p0h2p0h2----------|
A:-------------------0h2----------------0h2----------------------|
E:-----------------------------------0------------------0--------|


You know I'm lost without your love

e:---------------------------------------------------0-0-0-0-----|
B:-------------------------------------------------5-5-5-5-5-----|
G:--------------2bp0----------------------2bp0-------------------|
D:-----0-----0-------2-----------0-----0-------2-----------------|
A:-0h2---0h2-----------------0h2---0h2---------------------------|
E:---------------------0-------------------------0---------0-----|

Just like a bird without a feather

e:---3b-0---3-3b-0-----------------------------------------------|
B:--------3------------------------------------------------------|
G:---------------------------------------------------------------|
D:-----------------------0h2p0h2p0h2--------0h2p0h2p0h2----------|
A:-------------------0-2----------------0-2----------------------|
E:-----------------------------------0------------------0--------|

You know I'm lost without your love

e:---------------------------------------------------0-0-0-0-----|
B:-------------------------------------------------5-5-5-5-5-----|
G:--------------2bp0----------------------2bp0-------------------|
D:-----0-----0-------2-----------0-----0-------2-----------------|
A:-0h2---0h2-----------------0h2---0h2---------------------------|
E:---------------------0-------------------------0---------0-----|

You know I need your love

e:---------------------------------------------------------------|
B:---------------------------------------------------------------|
G:---------------------------------------------------------------|
D:--------0h2p0h2----------0h2p0h2-------------------------------|
A:---0-2--------------0-2----------------------------------------|
E:-----------------0----------------0----------------------------|

Just like angels need heaven above

e:---3-0---0-------------------------------------------------------|
B:-------3---------------------------------------------------------|
G:-----------2bp0--------------------------------------------------|
D:----------------2------------------------------------------------|
A:-----------------------------------------------------------------|
E:-----------------0-----------------------------------------------|

e:---------------------------------------------------0-0-0-0-----|
B:-------------------------------------------------5-5-5-5-5-----|
G:--------------2bp0----------------------2bp0-------------------|
D:-----0-----0-------2-----------0-----0-------2-----------------|
A:-0h2---0h2-----------------0h2---0h2---------------------------|
E:---------------------0-------------------------0---------0-----|

Well you know as sure as I shot my baby

e:----3b-0---3-3b------------------------------------------------|
B:---------3------3----------------------------------------------|
G:---------------------------------------------------------------|
D:-----------------------0h2p0h2p0--------0h2p0h2p0--------------|
A:-------------------0-2--------------0-2------------------------|
E:--0------------------------------0----------------0------------|

But I did it because she did me wrong

e:---3b-0---0-3-3b-0---0-----------------------------------------|
B:--------3----------3-------------------------------------------|
G:---------------------------------------------------------------|
D:-------------------------2bp0----------------------------------|
A:------------------------------2--------------------------------|
E:--------------------------------0------------------------------|

e:---------------------------------------------------0-0-0-0-----|
B:-------------------------------------------------5-5-5-5-5-----|
G:--------------2bp0----------------------2bp0-------------------|
D:-----0-----0-------2-----------0-----0-------2-----------------|
A:-0h2---0h2-----------------0h2---0h2---------------------------|
E:---------------------0-------------------------0---------0-----|

Well you know as sure as I shot my baby

e:--3b-0--0--0---3b-0--0--0--0-----------------------------------|
B:--5--5--5--5---5--5--5--5--5-----------------------------------|
G:---------------------------------------------------------------|
D:---------------------------------------------------------------|
A:---------------------------------------------------------------|
E:-----0--0--0------0--0--0--0-----------------------------------|

But I did it because she did me wrong

e:---3b-0---0----------------------------------------------------|
B:--------3------------------------------------------------------|
G:------------2bp0-----------------------------------------------|
D:----------------2----------------------------------------------|
A:---------------------------------------------------------------|
E:------------------0--------------------------------------------|

e:---------------------------------------------------0-0-0-0-----|
B:-------------------------------------------------5-5-5-5-5-----|
G:--------------2bp0----------------------2bp0-------------------|
D:-----0-----0-------2-----------0-----0-------2-----------------|
A:-0h2---0h2-----------------0h2---0h2---------------------------|
E:---------------------0-------------------------0---------0-----|

Yeah you know the judge call it murder

e:--3b-0--0--0---3b-0--0--0--0-----------------------------------|
B:--5--5--5--5---5--5--5--5--5-----------------------------------|
G:---------------------------------------------------------------|
D:---------------------------------------------------------------|
A:---------------------------------------------------------------|
E:-----0--0--0------0--0--0--0-----------------------------------|

Now the penitentiary is my home

e:---3b-0--------------------------------------------------------|
B:--------3-0----------------------------------------------------|
G:------------2bp0-----------------------------------------------|
D:-----------------2---------------------------------------------|
A:---------------------------------------------------------------|
E:-------------------0-------------------------------------------|

e:---------------------------------------------------0-0-0-0-----|
B:-------------------------------------------------5-5-5-5-5-----|
G:--------------2bp0----------------------2bp0-------------------|
D:-----0-----0-------2-----------0-----0-------2-----------------|
A:-0h2---0h2-----------------0h2---0h2---------------------------|
E:---------------------0-------------------------0---------0-----|

Yeah I loved that woman

e:--0-0-0--0-0-0--3b-0--0--0---3b-0--0--0--0---------------------|
B:----0-0----0-0--5--5--5--5---5--5--5--5--5---------------------|
G:---------------------------------------------------------------|
D:---------------------------------------------------------------|
A:---------------------------------------------------------------|
E:--0-0-0--0-0-0-----0--0--0------0--0--0--0---------------------|

She said she didn't love no one but me

e:---3b-0---0----------------------------------------------------|
B:--------3------------------------------------------------------|
G:------------2bp0-----------------------------------------------|
D:----------------=2---------------------------------------------|
A:---------------------------------------------------------------|
E:-------------------0-------------------------------------------|

e:---------------------------------------------------0-0-0-0-----|
B:-------------------------------------------------5-5-5-5-5-----|
G:--------------2bp0----------------------2bp0-------------------|
D:-----0-----0-------2-----------0-----0-------2-----------------|
A:-0h2---0h2-----------------0h2---0h2---------------------------|
E:---------------------0-------------------------0---------0-----|

Yeah, you know I love that woman

e:--0-0-0--0-3-3--3b-0--0--0---3b-0--0--0--0----------------------|
B:----0-0---------5--5--5--5---5--5--5--5--5----------------------|
G:----------------------------------------------------------------|
D:----------------------------------------------------------------|
A:----------------------------------------------------------------|
E:--0-0-0--0-0-0--------------------------------------------------|

She said she didn't love no one but me

e:---------------------------------------------------0-0-0-0-----|
B:-------------------------------------------------5-5-5-5-5-----|
G:--------------2bp0----------------------2bp0-------------------|
D:-----0-----0-------2-----------0-----0-------2-----------------|
A:-0h2---0h2-----------------0h2---0h2---------------------------|
E:---------------------0-------------------------0---------0-----|

Yeah, but I caught my baby cheating

e:--0-0-0--0-0-0--3b-0--0--0---3b-0--0--0--0----------------------|
B:----0-0----0-0--5--5--5--5---5--5--5--5--5----------------------|
G:----------------------------------------------------------------|
D:----------------------------------------------------------------|
A:----------------------------------------------------------------|
E:--0-0-0--0-0-0--------------------------------------------------|

Now my home aint where it used to be

e:---3-0-3b-0---0-------------------------------------------------|
B:------------3---------------------------------------------------|
G:----------------2bp0--------------------------------------------|
D:---------------------2------------------------------------------|
A:----------------------------------------------------------------|
E:-------------------------0--------------------------------------|

e:---------------------------------------------------------------|
B:---------------------------------------------------------------|
G:--------------2bp0----------------------2bp0-------------------|
D:-----0-----0-------2-----------0-----0-------2-----------------|
A:-0h2---0h2-----------------0h2---0h2---------------------------|
E:---------------------0-------------------------0---------------|
Добавлено: 30.12.2015
Другие материалы по этой песне:
  • Аккорды и текст

Страница создана 30.12.2015
http://primanota.ru/burnside-r-l/just-like-a-bird-without-a-feather-chords.htm
Привет, Гость.
Предлагаем пройти революционный курс по гитаре.
Подарок от PrimaNota.Ru, забирай!