PrimaNota.ru - самый крупный в мире бесплатный архив песенных текстов, аккордов, табулатур и нот


Burning Twilight - The Resolve Of Cowards - таба, видео

Регистрация Запомнить меня
Войти через:  Facebook Google Twitter Vk Yandex Mail.ru

Burning Twilight - The Resolve Of Cowards - таба, видео

Печатать
Просмотров: 78
Tabbed by: SeanW82
Band: Burning Twilight
Song: The Resolve Of Cowards
Album: The Reckoning
Label: Blkheart Group



Intro:
d|-------------------------------------------------------------------------------------9--------------|
a|---------------------------------------------10----------6------------8/10-8--8----8----------------|
f|---------7--------------------------7---10/12---12-------9b---10-9----------10----------------------|
c|---0-7h8---7h8\5h7\3h5---------0-7h8-7h8-----------11--------------8-7-----------11-----------------|
g|-----------------------4-------------------------------------------------------------------04-44440-|
C|-0~~~~~~~~~~~~~~~~~~~~---xx---0~~~~~~~~~~~~~~~~~~~~~~~xx-------------------------------xx-----------|
                           **                           **                               **
d|----------------------------------------------------------------------------------------------------|
a|---------------------------------------------------------9------------------------------------------|
f|---------------------------------------------------------12b----------------------------------------|
c|----------------------------------------------------------------------------------------------------|
g|-0----------------------------0-----------------------------0------------------------------07-77770-|
C|-0~~~~~~~~~~~~~~~~~~~~---xx---0~~~~~~~~~~~~~~~~~~~~~~~xx----0~~~~~~~~~~~~~~~~~~~~~~~---xx-----------|
                           **                           **                               **


Intro Part2:
d|----------------------------------------------------------------------------------------------|
a|----------------------------------------------------------------------------------------------|
f|----------------------------------------------------------------------------------------------|
c|----------------------------------------------------------------------------------------------|
g|---------------------------------------------------------0-0-00-00-0-0--0-00-00-0-0-----------|
C|-0-0-00-00-0-0--0-00-00-0-0-0-0-00-00-0-0--0-0-00-00-0-0-1-1-11-11-1-1--1-11-11-1-1-0-0-00-00-|
                                                           * * ** ** * *  * ** ** * *
d|----------------------------------------------------------------------------------------------|
a|----------------------------------------------------------------------------------------------|
f|----------------------------------------------------------------------------------------------|
c|----------------------------------------------------------------------------------------------|
g|---------------------------------------------------------0-0-00-00-0-0--0-00-00-0-0-----------|
C|-0-0-00-00-0-0--0-00-00-0-0-0-0-00-00-0-0--0-0-00-00-0-0-1-1-11-11-1-1--1-11-11-1-1-0-0-00-00-|
                                                           * * ** ** * *  * ** ** * *


Pre-Verse:
d|---------------|
a|---------------|
f|-9h10p9--------|
c|---------11h12-|
g|-------12------|
C|---------------|

d|---------------|
a|---------------|
f|---------------|
c|---------------|
g|---------------|
C|---------------|



Verse:                                               X4
d|----------------------------------------------------|
a|----------------------------------------------------|
f|----------109------------------------9h10p9---------|
c|--------------1211----------------------------11h12-|
g|-------------------12-----------------------12------|
C|-0-0-00-00---0----0--0-11--0-0-00-00----------------|
                                                     X2                                  
  X2
d|----------------------------------------------------|-------------------------------------|
a|----------108------------------------8h10p8---------|-------------------------------------|
f|--------------109--10-9----------------------9h10---|-------------------------------------|
c|-------------------------------------------10-------|-------------------------------------|
g|----------------------------------------------------|-------------------------------------|
C|-0-0-00-00---0----0--0-----0-0-00-00----------------|-0-0-00-00---0----0--0-----0-0-00-00-|



Verse Part2:                                               X1
d|----------------------------------------------------------|
a|----------------------------------------------------------|
f|----------------------------------------------------------|
c|----------------------------------------------------------|
g|----------------------------------------------------------|
C|-12\-0-0--00--0-00-00-000000-00-00--000-000--0-00-0-0-0-0-|
       * *  **  * ** ** ****** ** **  *** ***  * **        X1
d|----------------------------------------------------------|
a|----------------------------------------------------------|
f|----------------------------------------------------------|
c|-15\------------------------------------------------------|
g|----------------------------------------------------------|
C|-----0-0--00--0-00-00-000000-00-00--000-000--0-00-0-0-0-0-|
       * *  **  * ** ** ****** ** **  *** ***  * **
Continued..                                                X1
d|----------------------------------------------------------|
a|----------------------------------------------------------|
f|----------------------------------------------------------|
c|----------------------------------------------------------|
g|----------------------------------------------------------|
C|-00-00--000-000-0-00-0-0-0-0-12\-0-0--00--0-00-00-000000--|
   ** **  *** *** * **             * *  **  * ** ** ****** X1
d|----------------------------------------------------------|
a|----------------------------------------------------------|
f|----------------------------------------------------------|
c|----------------------------15\---------------------------|
g|----------------------------------------------------------|
C|-00-00--000-000-0-00-0-0-0-0-----0-0--00--0-00-00-000000--|
   ** **  *** *** * **             * *  **  * ** ** ******







d|--------|
a|--------|
f|-Guitar-| (Lead Guitar - Left Speaker)
c|---1----|
g|--------|
C|--------|

d|--------|
a|--------|
f|-Guitar-| (Rythm Guitar - Right Speaker)
c|---2----|
g|--------|
C|--------|

TAB KEY
____________________
~ = Let Note Ring   |
                    |
' = Tremelo Picking |
                    |
\ = Slide Down Neck |
                    |
/ = Slide Up Neck   |
                    |
h = Hammer On       |
                    |
p = Pull Off        |
                    |
b = Bend String     |
                    |
x = chugs           |
                    |
* = Palm Mute       |
                    |
{ = Pick Scrape     |
____________________|

I'll try to get the rest of this song tabbed out in the near future, thanks.

https://www.facebook.com/burningtwilightband?fref=ts

http://burningtwilightmusic.bandcamp.com/album/the-reckoning
Добавлено: 13.10.2013
Другие материалы по этой песне:

Страница создана 19.07.2013
http://primanota.ru/burning-twilight/the-resolve-of-cowards-chords.htm
Привет, Гость.
Предлагаем пройти революционный курс по гитаре.
Подарок от PrimaNota.Ru, забирай!