PrimaNota.ru - самый крупный в мире бесплатный архив песенных текстов, аккордов, табулатур и нот


Burning The Masses - Galactic Abduction - таба, видео

Регистрация Запомнить меня
Войти через:  Facebook Google Twitter Vk Yandex Mail.ru

Burning The Masses - Galactic Abduction - таба, видео

Печатать
Просмотров: 111
HELP WOULD BE APPRECIATED!


This is the lead track in the beginning.


              E   E   E   E   E   E   E   E   
D||-------|--19--14------14------------------|
A||-------|----------15------15------15------|
F||-------|----------------------16------16--|
C||-------|----------------------------------|
G||-------|----------------------------------|
C||-------|----------------------------------|


   E   E   E   E   E   E   E   E      E   E   E   E   E   E   E   E   
----------------------------------|--19--14------14------------------|
----------------------------------|----------15------15------15------|
------16--------------------------|----------------------16------16--|
--16------16------16--------------|----------------------------------|
--------------17------17--14------|----------------------------------|
------------------------------16--|----------------------------------|


   E   E   E   E   E   E   E   E      E   E   E   E   E   E   E   E   
----------------------------------|--22--17------17------------------|
----------------------------------|----------19------19------19------|
------16--------------------------|----------------------19------19--|
--16------16------16--------------|----------------------------------|
--------------17------17--14------|----------------------------------|
------------------------------16--|----------------------------------|


   E   E   E   E   E   E   E   E      E   E   E   E   E   E   E   E   
----------------------------------|--22--17------17------------------|
----------------------------------|----------19------19------19------|
------19--------------------------|----------------------19------19--|
--21------21------21--------------|----------------------------------|
--------------21------21--17------|----------------------------------|
------------------------------21--|----------------------------------|


   E   E   E   E   E   E   E   E      E   E   E   E   E   E   E   E   
----------------------------------|--17--12------12------------------|
----------------------------------|----------14------14------14------|
------19--------------------------|----------------------14------14--|
--21------21------21--------------|----------------------------------|
--------------21------21--17------|----------------------------------|
------------------------------21--|----------------------------------|


   E   E   E   E   E   E   E   E      E   E   E   E   E   E   E   E   
----------------------------------|--17--12------12------------------|
----------------------------------|----------14------14------14------|
------14--------------------------|----------------------14------14--|
--14------14------14--------------|----------------------------------|
--------------16------16--12------|----------------------------------|
------------------------------14--|----------------------------------|


   E   E   E   E   E   E   E   E      E   E   E   E   E   E   E   E   
----------------------------------|--19--14------14------------------|
----------------------------------|----------15------15------15------|
------14--------------------------|----------------------16------16--|
--14------14------14--------------|----------------------------------|
--------------16------16--12------|----------------------------------|
------------------------------14--|----------------------------------|


   E   E   E   E   E   E   E   E      E   E   E   E   E   E   E   E   
----------------------------------|--19--14------14------------------|
----------------------------------|----------15------15------15------|
------16--------------------------|----------------------16------16--|
--16------16------16--------------|----------------------------------|
--------------17------17--14------|----------------------------------|
------------------------------16--|----------------------------------|


   E   E   E   E   E   E   E   E      E   E   E   Q     E   E   E   
----------------------------------|--19--14------14----------------|
----------------------------------|----------15--------15------15--|
------16--------------------------|------------------------16------|
--16------16------16--------------|--------------------------------|
--------------17------17--14------|--------------------------------|
------------------------------16--|--------------------------------|


  E   E   E   Q     E   E   E     E   E   E   Q     E   Q     
-------------------------------|-----------------------------|
--L----------------------------|-----------------------------|
-----16------16----------------|-----------------------------|
---------16--------16------16--|--L--------------------------|
-----------------------17------|-----17--14--17----14--------|
-------------------------------|-----------------------16----|


                         TP    TP    TP    TP       TP    TP    TP    TP    
   Q    H.               Q     Q     Q     Q        Q     Q     Q     Q     
---------------------|--------------------------|--------17----------------|
---------------------|--------------------------|--17----------17----------|
---------------------|--------------------17----|--------------------17----|
---------------------|--------------19----------|--------------------------|
--14-----------------|--15----19----------------|--------------------------|
---------------------|--------------------------|--------------------------|


   TP    TP    TP    TP       TP    TP    TP    TP    
   Q     Q     Q     Q        Q     Q     Q     Q     
--20----15----------------|--------------------------|
--------------17----------|--------------------------|
--------------------17----|--------------------17----|
--------------------------|--17----14----17----------|
--------------------------|--------------------------|
--------------------------|--------------------------|


   TP    TP    TP    TP       TP    TP    TP    TP    
   Q     Q     Q     Q        Q     Q     Q     Q     
--15----------------------|--------------------------|
--------15----------------|--------------------------|
--------------16----------|--------------------------|
--------------------17----|--------------------17----|
--------------------------|--17----14----17----------|
--------------------------|--------------------------|


   TP    TP    TP    TP    
   Q     Q     Q     Q     
--13----------------------|
--------13----------------|
--------------14----------|
--------------------15----|
--------------------------|
--------------------------|


   |--3--|  |--3--|  |--3--|  |--3--|  |--3--|  |--3--|  |--3--|  |--3--|  
   S  S  S  S  S  S  S  S  S  S  S  S  S  S  S  S  S  S  S  S  S  S  S  S  
--12-13-12----------------------------12-17-12----------------------------|
-----------13----------------------13----------13-------------------------|
--------------14----------------14----------------14----------------------|
-----------------15----------15----------------------15-------------------|
--------------------15-12-15----------------------------15-12-15----------|
-----------------------------------------------------------------17-14-17-|


   TP    TP    TP    TP       TP    TP    TP    TP    
   Q     Q     Q     Q        Q     Q     Q     Q     
--------------------------|--------17----------------|
--------------------------|--17----------17----------|
--------------------17----|--------------------17----|
--------------19----------|--------------------------|
--15----19----------------|--------------------------|
--------------------------|--------------------------|


   TP    TP    TP    TP       TP    TP    TP    TP    
   Q     Q     Q     Q        Q     Q     Q     Q     
--20----15----------------|--------------------------|
--------------17----------|--------------------------|
--------------------17----|--------------------17----|
--------------------------|--17----14----17----------|
--------------------------|--------------------------|
--------------------------|--------------------------|


   TP    TP    TP    TP       TP    TP    TP    TP    
   Q     Q     Q     Q        Q     Q     Q     Q     
--15----------------------|--------------------------|
--------15----------------|--------------------------|
--------------16----------|--------------------------|
--------------------17----|--------------------17----|
--------------------------|--17----14----17----------|
--------------------------|--------------------------|


   TP    TP    TP    TP    
   Q     Q     Q     Q     
--13----------------------|
--------13----------------|
--------------14----------|
--------------------15----|
--------------------------|
--------------------------|


   |--3--|  |--3--|  |--3--|  |--3--|  |--3--|  |--3--|  |--3--|  |--3--|  
   S  S  S  S  S  S  S  S  S  S  S  S  S  S  S  S  S  S  S  S  S  S  S  S  
--12-13-12----------------------------12-17-12----------------------------|
-----------13----------------------13----------13-------------------------|
--------------14----------------14----------------14----------------------|
-----------------15----------15----------------------15-------------------|
--------------------15-12-15----------------------------15-12-15----------|
-----------------------------------------------------------------17-14-17-|


   H.              
-----------------||
-----------------||
--17~------------||
-----------------||
-----------------||
-----------------||




Duration Legend
---------------
W - whole
H - half
Q - quarter
E - 8th
S - 16th
T - 32nd
X - 64th
. - note dotted
|-n-|  - n-tuplets


Tablature Legend
----------------
L - tied note
x - dead note
g - grace note
(n) - ghost note
> - accentuded note
NH - natural harmonic
AH - artificial harmonic
TH - tapped harmonic
SH - semi harmonic
PH - pitch harmonic
h - hammer on
p - pull off
b - bend
br - bendRelease
pb - preBend
pbr - preBendRelease
brb - bendReleaseBend
\n/ - tremolo bar dip
\n - tremolo bar dive
-/n - tremolo bar Release up
/n\ - tremolo bar inverted dip
/n - tremolo bar return
-\n - tremolo bar Release down
S - shift slide
s - legato slide
/ -  slide into from below or out of upwards
\ -  slide into from above or out of downwards
~ - vibrato
W - wide vibrato
tr - trill
TP - tremolo picking
T - tapping
S - slap
P - pop
< - fade in
^ - brush up
v - brush down


Chords underneath intro

Track 2
             E  E  E  E  E  E  E  E     E  E  E  E  E  E  E  E   
D||-------|--------------------------|--------------------------|
A||-------|--3--3--3--3--3--3--3--3--|--3--3--3--3--3--3--3--3--|
F||-------|--4--4--4--4--4--4--4--4--|--4--4--4--4--4--4--4--4--|
C||-------|--4--4--4--4--4--4--4--4--|--4--4--4--4--4--4--4--4--|
G||-------|--2--2--2--2--2--2--2--2--|--2--2--2--2--2--2--2--2--|
C||-------|--------------------------|--------------------------|


  E  E  E  E  E  E  E  E     E  E  E  E  E  E  E  E   
--------------------------|--------------------------|
--3--3--3--3--3--3--3--3--|--3--3--3--3--3--3--3--3--|
--4--4--4--4--4--4--4--4--|--4--4--4--4--4--4--4--4--|
--4--4--4--4--4--4--4--4--|--4--4--4--4--4--4--4--4--|
--2--2--2--2--2--2--2--2--|--2--2--2--2--2--2--2--2--|
--------------------------|--------------------------|


  E  E  E  E  E  E  E  E     E  E  E  E  E  E  E  E   
--2--2--2--2--2--2--2--2--|--2--2--2--2--2--2--2--2--|
--3--3--3--3--3--3--3--3--|--3--3--3--3--3--3--3--3--|
--2--2--2--2--2--2--2--2--|--2--2--2--2--2--2--2--2--|
--4--4--4--4--4--4--4--4--|--4--4--4--4--4--4--4--4--|
--5--5--5--5--5--5--5--5--|--5--5--5--5--5--5--5--5--|
--------------------------|--------------------------|


  E  E  E  E  E  E  E  E     E  E  E  E  E  E  E  E   
--2--2--2--2--2--2--2--2--|--2--2--2--2--2--2--2--2--|
--3--3--3--3--3--3--3--3--|--3--3--3--3--3--3--3--3--|
--2--2--2--2--2--2--2--2--|--2--2--2--2--2--2--2--2--|
--4--4--4--4--4--4--4--4--|--4--4--4--4--4--4--4--4--|
--5--5--5--5--5--5--5--5--|--5--5--5--5--5--5--5--5--|
--------------------------|--------------------------|


  E  E  E  E  E  E  E  E     E  E  E  E  E  E  E  E   
--0--0--0--0--0--0--0--0--|--0--0--0--0--0--0--0--0--|
--2--2--2--2--2--2--2--2--|--2--2--2--2--2--2--2--2--|
--2--2--2--2--2--2--2--2--|--2--2--2--2--2--2--2--2--|
--2--2--2--2--2--2--2--2--|--2--2--2--2--2--2--2--2--|
--0--0--0--0--0--0--0--0--|--0--0--0--0--0--0--0--0--|
--------------------------|--------------------------|


  E  E  E  E  E  E  E  E     E  E  E  E  E  E  E  E   
--0--0--0--0--0--0--0--0--|--0--0--0--0--0--0--0--0--|
--2--2--2--2--2--2--2--2--|--2--2--2--2--2--2--2--2--|
--2--2--2--2--2--2--2--2--|--2--2--2--2--2--2--2--2--|
--2--2--2--2--2--2--2--2--|--2--2--2--2--2--2--2--2--|
--0--0--0--0--0--0--0--0--|--0--0--0--0--0--0--0--0--|
--------------------------|--------------------------|


  E  E  E  E  E  E  E  E     E  E  E  E  E  E  E  E   
--------------------------|--------------------------|
--3--3--3--3--3--3--3--3--|--3--3--3--3--3--3--3--3--|
--4--4--4--4--4--4--4--4--|--4--4--4--4--4--4--4--4--|
--4--4--4--4--4--4--4--4--|--4--4--4--4--4--4--4--4--|
--2--2--2--2--2--2--2--2--|--2--2--2--2--2--2--2--2--|
--------------------------|--------------------------|


                                                        ^                 
  E  E  E  E  E  E  E  E     E  E  E  E  E  E  E  E     W                 
--------------------------|--------------------------|--2----------------|
--3--3--3--3--3--3--3--3--|--3--3--3--3--3--3--3--3--|--3----------------|
--4--4--4--4--4--4--4--4--|--4--4--4--4--4--4--4--4--|--4----------------|
--4--4--4--4--4--4--4--4--|--4--4--4--4--4--4--4--4--|--4----------------|
--2--2--2--2--2--2--2--2--|--2--2--2--2--2--2--2--2--|--2----------------|
--------------------------|--------------------------|-------------------|


  W                   W                   E.  S  H.                            
--L----------------|--L----------------|----------------------|---------------|
--L----------------|--L----------------|----------------------|---------------|
--L----------------|--L----------------|----------------------|---------------|
--L----------------|--L----------------|----------------------|---------------|
--L----------------|--L----------------|--2---L\--------------|---------------|
-------------------|-------------------|----------------------|---------------|


---------------|---------------|---------------|---------------|---------------|
---------------|---------------|---------------|---------------|---------------|
---------------|---------------|---------------|---------------|---------------|
---------------|---------------|---------------|---------------|---------------|
---------------|---------------|---------------|---------------|---------------|
---------------|---------------|---------------|---------------|---------------|


---------------|---------------|---------------|---------------|---------------|
---------------|---------------|---------------|---------------|---------------|
---------------|---------------|---------------|---------------|---------------|
---------------|---------------|---------------|---------------|---------------|
---------------|---------------|---------------|---------------|---------------|
---------------|---------------|---------------|---------------|---------------|


---------------|---------------|---------------|---------------|---------------|
---------------|---------------|---------------|---------------|---------------|
---------------|---------------|---------------|---------------|---------------|
---------------|---------------|---------------|---------------|---------------|
---------------|---------------|---------------|---------------|---------------|
---------------|---------------|---------------|---------------|---------------|


---------------||
---------------||
---------------||
---------------||
---------------||
---------------||




Duration Legend
---------------
W - whole
H - half
Q - quarter
E - 8th
S - 16th
T - 32nd
X - 64th
. - note dotted
|-n-|  - n-tuplets


Tablature Legend
----------------
L - tied note
x - dead note
g - grace note
(n) - ghost note
> - accentuded note
NH - natural harmonic
AH - artificial harmonic
TH - tapped harmonic
SH - semi harmonic
PH - pitch harmonic
h - hammer on
p - pull off
b - bend
br - bendRelease
pb - preBend
pbr - preBendRelease
brb - bendReleaseBend
\n/ - tremolo bar dip
\n - tremolo bar dive
-/n - tremolo bar Release up
/n\ - tremolo bar inverted dip
/n - tremolo bar return
-\n - tremolo bar Release down
S - shift slide
s - legato slide
/ -  slide into from below or out of upwards
\ -  slide into from above or out of downwards
~ - vibrato
W - wide vibrato
tr - trill
TP - tremolo picking
T - tapping
S - slap
P - pop
< - fade in
^ - brush up
v - brush down


-avengedevanfold
Добавлено: 09.06.2012
Вам также может быть интересно:
Другие материалы по этой песне:

Страница создана 19.03.2012
http://primanota.ru/burning-the-masses/galactic-abduction-chords.htm
Привет, Гость.
Предлагаем пройти революционный курс по гитаре.
Подарок от PrimaNota.Ru, забирай!