PrimaNota.ru - самый крупный в мире бесплатный архив песенных текстов, аккордов, табулатур и нот


Burning The Masses - Brace For Departure - таба, видео

Регистрация Запомнить меня
Войти через:  Facebook Google Twitter Vk Yandex Mail.ru

Burning The Masses - Brace For Departure - таба, видео

Печатать
Просмотров: 114
figured this out in a few minutes.

Note: they use some weird effect in the beginning, so its kinda hard to tell
where you play the right notes.

thanks,
avengedevanfold.

(tuning is drop c)


http://profile.myspace.com/index.cfm?fuseaction=user.viewprofile&friendid=7392412




Gtr I (C G C F A D) - 'Left'
Gtr II (C G C F A D) - 'Right'

  Q=135
 4/4
  Gtr I
  ~~~~~~~~~~~~~~~~~~~~~~~~~~~
  H.      E  E   H.      E E   W          +W
|--------------|-------------|----------|--------|
|--------------|-------------|----------|--------|
|--------------|-------------|----------|--------|
|--------------|-------------|----------|--------|
|-5-------5--7-|-4-------4-5-|-0--------|-(0)----|
|--------------|-------------|-0--------|-(0)----|
|
| Gtr II
| ~~~~~~~~~~~~~~~~~~~~~~~~~~~
| H.      E  E   H.      E E   W          +W
|--------------|-------------|----------|--------|
|--------------|-------------|----------|--------|
|--------------|-------------|----------|--------|
|--------------|-------------|----------|--------|
|--------------|-------------|-0--------|-(0)----|
|-8-------8-10-|-7-------7-8-|-0--------|-(0)----|


  ~~~~~~~~~~~~~~~~~~~~~~~~~~~~~~~~~~~~~~~~~~~~~~
  H.      E  E   H.      E E    W           +W
|--------------|-------------|-----------|------------------|
|--------------|-------------|-----------|------------------|
|--------------|-------------|-----------|------------------|
|--------------|-------------|-----------|------------------|
|-5-------5--7-|-4-------4-5-|-12--------|-(12)-------------|
|--------------|-------------|-----------|------------------|
|
| ~~~~~~~~~~~~~~~~~~~~~~~~~~~~~~~~~~~~~~~~~~~~~~~~~~~~~~~~~
| H.      E  E   H.      E E    W           +H     E  E  Q
|--------------|-------------|-----------|------------------|
|--------------|-------------|-----------|------------------|
|--------------|-------------|-----------|------------------|
|--------------|-------------|-----------|------------------|
|--------------|-------------|--9--------|--(9)----8-10-12--|
|-8-------8-10-|-7-------7-8-|-----------|------------------|


  ~~~~~~~~~~~~~~~~~~~~~~~~~~~
  H.      E  E   H.      E E     E q  E q    Q.   E E E q   Q
|--------------|-------------||------------|---------------------||
|--------------|-------------||o-----------|--------------------o||
|--------------|-------------||------------|---------------------||
|--------------|-------------||------------|---------------------||
|-5-------5--7-|-4-------4-5-||o-0-0--0-0--|------0-0-0-0--12\--o||
|--------------|-------------||--0-0--0-0--|------0-0-0-0--12\---||
|
| ~~~~~~~~~~~~~~~~~~~~~~~~~~~
| H.      E  E   H.      E E     E q  E q    Q.   E E E q   Q
|--------------|-------------||------------|---------------------||
|--------------|-------------||o-----------|--------------------o||
|--------------|-------------||------------|---------------------||
|--------------|-------------||------------|---------------------||
|--------------|-------------||o-0-0--0-0--|------0-0-0-0--12\--o||
|-8-------8-10-|-7-------7-8-||--0-0--0-0--|------0-0-0-0--12\---||


~~~~~~~~~~~~~~~~TP~~~TP~~~~~~~~~~~~TP  TP                TP
  H.            E  E H.          E E   W                +W
|------------|-----------------------|----------------|----------------|
|------------|-----------------------|----------------|----------------|
|------------|-----------------------|----------------|----------------|
|------------|-----------------------|----------------|----------------|
|-5----------|--5--7-4-----------4-5-|-0--------------|-(0)------------|
|------------|-----------------------|----------------|----------------|
|
| E  Q  E Q    +Q.      E E E H        E Q  E Q  +Q     +E  E E E H
|------------|-----------------------|----------------|----------------|
|------------|-----------------------|----------------|----------------|
|------------|-----------------------|----------------|----------------|
|------------|-----------------------|----------------|----------------|
|-0--0--0-0--|-(0)------0-0-0-0------|-0-0--0-0--(0)--|-(0)-0-0-0-0----|
|-0--0--0-0--|-(0)------0-0-0-0------|-0-0--0-0--(0)--|-(0)-0-0-0-0----|

Добавлено: 25.06.2012
Другие материалы по этой песне:
  • Аккорды и текст

Страница создана 25.06.2012
http://primanota.ru/burning-the-masses/brace-for-departure-chords.htm
Привет, Гость.
Предлагаем пройти революционный курс по гитаре.
Подарок от PrimaNota.Ru, забирай!