PrimaNota.ru - самый крупный в мире бесплатный архив песенных текстов, аккордов, табулатур и нот


Burning Love - The Needle - таба, видео

Регистрация Запомнить меня
Войти через:  Facebook Google Twitter Vk Yandex Mail.ru

Burning Love - The Needle - таба, видео

Печатать
Просмотров: 74
-----------------------------------------------------------------
The Needle - Burning Love (http://burninglove416.blogspot.com/)
-----------------------------------------------------------------
Tabbed by: Jake Miller (millarso)
Email: millarso2.0@gmail.com
Tuning: Drop C

Section 1
Both Guitars
D|---------------------------------------------|
A|---------------------------------------------|
F|---------------------------------------------|
C|-0--0--0--------------0--0--0----------------|
G|-x--x--x--------0-----x--x--x--3-------3-----|
C|-0--0--0--5-3-5---5-3-0--0--0----3-3-3---5-5-|

Section 2
D|---------------------------------|
A|---------------------------------|
F|---------------------------------|
C|---------------------------------|x4
G|-3-5---------------3-------3-----|
C|-----0-0-0-0-0-0-0---3-3-3---5-5-|

Section 3
D|-----------------|
A|-----------------|
F|---4------3------|
C|---4(x16)-3(x16)-|
G|-3-2------1------|
C|-----------------|

Section 4
Guitar 1
D|---------------------------------|
A|-1st-time------------------------|
F|(5-7)----------------------------|
C|-------------------3-------------|x4
G|-3-5-----------------5-5-5---2-2-|
C|-----0-0-0-0-0-0-0---------5-----|

Guitar 2
D|---------------------------------|
A|---------------------------------|
F|---------------------------------|
C|---------------------------------|x4
G|-3-5-----------------3-3-3---2-2-|
C|-----0-0-0-0-0-0-0-3-------5-----|

Section 5
Both Guitars
D|----------------|
A|----------------|
F|---4------3-----|
C|---4(x16)-3(x8)-|
G|-3-2------1-----|
C|----------------|

D|---------------|
A|---------------|
F|---------------|
C|---------------|
G|-------0-------|
C|-5-3-5---5-3-5-|

Section 6
Guitar 1
D|--------------------------------------------------------------------|
A|-------------------------------12b13r12b13--------------------------|
F|-------------------12b14r12b14--------------------------------------|
C|------------------------------------------------------------3~--5~--|
G|-3-5---------------------------------------3-5----------------------|
C|-----0-0-0-0-0-0-0-----------------------------0-0-0-0-0-0-0--------|

Guitar 2
D|---------------------------------------------------|
A|---------------------------------------------------|
F|---------------------------------------------------|
C|------------------3~--5~-------------------3~--5~--|
G|-3-5----------------------3-5----------------------|
C|-----0-0-0-0-0-0-0------------0-0-0-0-0-0-0--------|

Guitar 1
D|--------------------------------------------------------------------|
A|-------------------12b13r12b13-13b15r13b15--------------------------|
F|--------------------------------------------------------------------|
C|------------------------------------------------------------3~--5~--|
G|-3-5---------------------------------------3-5----------------------|
C|-----0-0-0-0-0-0-0-----------------------------0-0-0-0-0-0-0--------|

Guitar 2
D|-----------------------------------------12b13-13b15-|
A|-----------------------------------------------------|
F|-----------------------------------------------------|
C|------------------3--5-------------------------------|
G|-3-5--------------3--5--3-5--------------------------|
C|-----0-0-0-0-0-0-03--5------0-0-0-0-0-0-0------------|

Guitar1
D|-------------------------------------------------|
A|-------------12b13r12b13-12b13r12b13-13b15r13b15-|
F|-12b14r12b14-------------------------------------|
C|-------------------------------------------------|
G|-------------------------------------------------|
C|-------------------------------------------------|

Guitar 2
D|-------------------------12b13-------13b15--13b15-|
A|--------------------------------------------------|
F|-9b10--------10b12--------------------------------|
C|--------------------------------------------------|
G|--------------------------------------------------|
C|--------------------------------------------------|

Section 7
Guitar 1
D|--------------------------|
A|--------------------------|
F|-/12--10------------------|
C|----------12--/9--8-------|x3
G|---------------------10p0-|
C|--------------------------|

Guitar 2
D|--------------------------|
A|--------------------------|
F|---------------4--3---3---|
C|---5---3---0---4--3---3-0-|x3
G|---5---3---0---2--1---1-0-|
C|---5---3---0------------0-|

Guitar 1
D|--------------|
A|--------------|
F|-/12--10--12--|
C|--------------|
G|--------------|
C|--------------|

Guitar 2
D|--------------|
A|--------------|
F|--------------|
C|---5---3---5--|
G|---5---3---5--|
C|---5---3---5--|

-Repeat Section 5

Section 8
Guitar 1
D|-----------------------------------------------------------------|
A|-----------------------------------------------------------------|
F|-----------------------------------------------------------------|
C|-------------------3-------5-------------------------------------|
G|-3-5-----------------5-5-5---2-2-3-5---------------------0-------|
C|-----0-0-0-0-0-0-0-------------------0-0-0-0-0-0-0-5-3-5---5-3-5-|

Guitar 2
D|-----------------------------------------------------------------|
A|-----------------------------------------------------------------|
F|-----------------------------------------------------------------|
C|-----------------------------------------------------------------|
G|-3-5-----------------3-3-3---2-2-3-5---------------------0-------|
C|-----0-0-0-0-0-0-0-3-------5---------0-0-0-0-0-0-0-5-3-5---5-3-5-|

Both Guitars
D|-----------------------------------------------------------------|
A|-----------------------------------------------------------------|
F|-----------------------------------------------------------------|
C|-----------------------------------------------------------------|
G|-3-5-----------------3-3-3---2-2-3-5---------------------0-------|
C|-----0-0-0-0-0-0-0-3-------5---------0-0-0-0-0-0-0-5-3-5---5-3-5-|

Outro
Both Guitars
D|------------------------------------|
A|------------------------------------|
F|---4------3-----7-10-7-10-10-7-10-7-|
C|---4(x16)-3(x9)-7-10-7-10-10-7-10-7-|
G|-3-2------1-----5--8-5--8--8-5--8-5-|
C|------------------------------------|

Great song, great band. Not sure if they play in Drop C,
but this all looks and sounds great to me.
Please rate & comment.
Thanks,
millarso
Добавлено: 08.08.2013
Другие материалы по этой песне:
  • Аккорды и текст

Страница создана 08.08.2013
http://primanota.ru/burning-love/the-needle-chords.htm
Привет, Гость.
Предлагаем пройти революционный курс по гитаре.
Подарок от PrimaNota.Ru, забирай!