PrimaNota.ru - самый крупный в мире бесплатный архив песенных текстов, аккордов, табулатур и нот


Burning In Hell - Goddesses Of Fate Part II - таба, видео

Регистрация Запомнить меня
Войти через:  Facebook Google Twitter Vk Yandex Mail.ru

Burning In Hell - Goddesses Of Fate Part II - таба, видео

Печатать
Просмотров: 123
Уроки эстрадного вокала в Санкт-Петербурге
-------------------------------------------------------------------------------
                             Goddesses Of Fate Part II - Burning In Hell
-------------------------------------------------------------------------------

Tabbed By : Randy Lott
e-mail: venominox@rock.com

Tuning: BEADGC



     E  E  E  H        E     E  E  E  H        E     E  E  E  H        E   
C||-----------------------|-----------------------|-----------------------|
G||-----------------------|-----------------------|-----------------------|
D||-----------------------|-----------------------|-----------------------|
A||-----------------------|-----------------------|-----------------------|
E||-----------------------|-----------------------|-----------------------|
B||--3--3--3--------------|--3--3--3--------------|--3--3--3--------------|


  E  E  E  H        E     S S S S S S S S S S S S S S S S  
-----------------------|----------------------------------|
-----------------------|----------------------------------|
-----------------------|----------------------------------|
-----------------------|--1-1-1-1-1-1-1-1-1-1-1-1-1-1-1-1-|
-----------------------|----------------------------------|
--3--3--3--------------|----------------------------------|


  S S S S S S S S S S S S S S S S    S S S S S S S S S S S S S S S S  
----------------------------------|----------------------------------|
----------------------------------|----------------------------------|
----------------------------------|----------------------------------|
--1-1-1-1-1-1-1-1-1-1-1-1-1-1-1-1-|--1-1-1-1-1-1-1-1-1-1-1-1-1-1-1-1-|
----------------------------------|----------------------------------|
----------------------------------|----------------------------------|


  S S S S S S S S S S S S S S S S    E  E  E  H        E   
----------------------------------|-----------------------|
----------------------------------|-----------------------|
----------------------------------|-----------------------|
--1-1-1-1-1-1-1-1-1-1-1-1-1-1-1-1-|-----------------------|
----------------------------------|-----------------------|
----------------------------------|--3--3--3--------------|


                          v  v  v                                        
  E  E  E  H        E     E  E  E   Q.     Q       E  E  E  H        E   
-----------------------|------------------------|-----------------------|
-----------------------|--7--7--7\--------------|-----------------------|
-----------------------|--7--7--7\--------------|-----------------------|
-----------------------|--5--5--5\--------------|-----------------------|
-----------------------|------------------------|-----------------------|
--3--3--3--------------|------------------------|--3--3--3--------------|


  S S S S S S S S S S S S S S S S    S S S S S S S S S S S S S S S S  
----------------------------------|----------------------------------|
----------------------------------|----------------------------------|
----------------------------------|----------------------------------|
--1-1-1-1-1-1-1-1-1-1-1-1-1-1-1-1-|--1-1-1-1-1-1-1-1-1-1-1-1-1-1-1-1-|
----------------------------------|----------------------------------|
----------------------------------|----------------------------------|


  S S S S S S S S S S S S S S S S    S S S S S S S S S S S S S S S S   
----------------------------------|----------------------------------||
----------------------------------|----------------------------------||
----------------------------------|----------------------------------||
--1-1-1-1-1-1-1-1-1-1-1-1-1-1-1-1-|--1-1-1-1-1-1-1-1-1-1-1-1-1-1-1-1-||
----------------------------------|----------------------------------||
----------------------------------|----------------------------------||




Duration Legend
---------------
W - whole
H - half
Q - quarter
E - 8th
S - 16th
T - 32nd
X - 64th
. - note dotted
|-n-|  - n-tuplets


Tablature Legend
----------------
L - tied note
x - dead note
g - grace note
(n) - ghost note
> - accentuded note
NH - natural harmonic
AH - artificial harmonic
TH - tapped harmonic
SH - semi harmonic
PH - pitch harmonic
h - hammer on
p - pull off
b - bend
br - bendRelease
pb - preBend
pbr - preBendRelease
brb - bendReleaseBend
\n/ - tremolo bar dip
\n - tremolo bar dive
-/n - tremolo bar Release up
/n\ - tremolo bar inverted dip
/n - tremolo bar return
-\n - tremolo bar Release down
S - shift slide
s - legato slide
/ -  slide into from below or out of upwards
\ -  slide into from above or out of downwards
~ - vibrato
W - wide vibrato
tr - trill
TP - tremolo picking
T - tapping
S - slap
P - pop
< - fade in
^ - brush up
v - brush down


Burning In Hell's Website:  http://www.burninginhell.com.br/
Добавлено: 08.06.2012
Другие материалы по этой песне:

Страница создана 02.04.2012
http://primanota.ru/burning-in-hell/goddesses-of-fate-part-ii-chords.htm
Привет, Гость.
Предлагаем пройти революционный курс по гитаре.
Подарок от PrimaNota.Ru, забирай!