PrimaNota.ru - самый крупный в мире бесплатный архив песенных текстов, аккордов, табулатур и нот


Burning Graceland - A Day In The Life Of George Clooney - таба, видео

Регистрация Запомнить меня
Войти через:  Facebook Google Twitter Vk Yandex Mail.ru

Burning Graceland - A Day In The Life Of George Clooney - таба, видео

Печатать
Просмотров: 78
Hey everyone a lot of people begged me to make this tab so here you go. ENJOY!!!!
(this song is in drop c tuning)

h= hammer-on
p= pull-off                http://www.myspace.com/burninggraceland

          repeat 6x


     D|----------------------------------------------------------------------|
     A|----------------------------------------------------------------------|
     F|----------------------------------------------------------------------|
     C|----------------------------10---------10------------10---8--10--12---|
     G|----------7h87h87h8-------7----8----------8---------------------------|
     C|-0000000------------00000--------00000------0-000--8----8---8---8-----|

     D|-----------------------------------------------------------------------|
     A|-----------------------------------------------------------------------|
     F|-----------------------------------------------------------------------|
     C|-----------------------------------------------------------------------|
     G|-----------------------------------------------------------------------|
     C|-00000000--00000--00000------------------------------------------------|


     D|-----------------------------------------------------------------------|
     A|-----------------------------------------------------------------------|
     F|-----------------------------------------------------------------------|
     C|----------------------------------------10---8---10---12---------------|
     G|-----------------------------------------------------------------------|
     C|-000000000--00000--00000--------------8----8---8----8------------------|


     D|-----------------------------------------------------------------------|
     A|-----------------------------------------------------------------------|
     F|-----------------------------------------------------------------------|
     C|-8-8--10-10h12----7-7--8-8h10------------------------------------------|
     G|-8-8--------------7-7-----------0-0--3-0--5-0--7-0--5-0--3-0--2-3-0----|
     C|-8-8--------------7-7-----------0-0--3-0--5-0--7-0--5-0--3-0--2-3-0----|


     D|------------------------------------------------------------------------|
     A|------------------------------------------------------------------------|
     F|------------------------------------------------------------------------|
     C|-8-8--10-10h12----7-7--8-8h10-------------------------------------------|
     G|-8-8--------------7-7----------0-0--3-0--5--0--7-0--5-0--3-0--2-3-0-----|
     C|-8-8--------------7-7----------0-0--3-0--5--0--7-0--5-0--3-0--2-3-0-----|


     D|-----------------------------------------------------------------------|
     A|-----------------------------------------------------------------------|
     F|-----------------------------------------------------------------------|
     C|-8-8--10-10h12----7-7--8-8h10------------------------------------------|
     G|-8-8--------------7-7----------0-0--3-0--5--0--7-0--5-0--3-0--2-3-0----|
     C|-8-8--------------7-7----------0-0--3-0--5--0--7-0--5-0--3-0--2-3-0----|


     D|-----------------------------------------------------------------------|
     A|-----------------------------------------------------------------------|
     F|-----------------------------------------------------------------------|
     C|-8-8--10-10h12----7-7--8-8h10------------------------------------------|
     G|-8-8--------------7-7--------------------------------------------------|
     C|-8-8--------------7-7--------------------------------------------------|


     D|------------------------------------------------------------------------|
     A|------------------------------------------------------------------------|
     F|------------------------------------------------------------------------|
     C|------------------------------------------------------------------------|
     G|-0-0--3-0--5-0--7-0--5-0--3-0--2-3-0-0--3-0--5-0--7-0--5-0--3-0--2-3--0-|
     C|-0-0--3-0--5-0--7-0--5-0--3-0--2-3-0-0--3-0--5-0--7-0--5-0--3-0--2-3--0-|

           let that last open note ring

     D|-----------------------------------------------------------------------|
     A|-----------------------------------------------------------------------|
     F|-----------------------------------------------------------------------|
     C|-----------------------------------------------------------------------|
     G|-----------1h3p0h1h3p0h1h3---------------------------------------------|
     C|-000000000-------------------------------------------------------------|

             repeat that last riff 19x (i know its a lot)

     D|-----------------------------------------------------------------------|
     A|-----------------------------------------------------------------------|
     F|-----------------------------------------------------------------------|
     C|-----------------------8-----------------------------------------------|
     G|-----------------------6-----------------------------------------------|
     C|-0000000000000000000---------------------------------------------------|

                repeat that 4x

     D|-----------------------------------------------------------------------|
     A|-----------------------------------------------------------------------|
     F|-----------------------------------------------------------------------|
     C|--------7h8p7-----------------------7h8p7------------------------------|
     G|-0-0-0--------8-7-8-slide-3--0-0-0--------8-7-8-slide-10---------------|
     C|-0-0-0-----------------------0-0-0-------------------------------------|

                     repeat that one 2x

     D|-----------------------------------------------------------------------|
     A|-----------------------------------------------------------------------|
     F|----------14------10-----5-------7-------5-------10--------------------|
     C|----------xx------x------x-slide-x-slide-x-slide-x---------------------|
     G|----------12------8------3-------5-------3-------8---------------------|
     C|-00000000----0000----000-----------------------------------------------|

               repeat that 3x


     D|-----------------------------------------------------------------------|
     A|--------------------------------------------0000000---------00000------|
     F|----------14------10------------------------7777777---------77777------|
     C|----------xx------x----------------------------------------------------|
     G|----------12------8-------6-5-3-0--------------------------------------|
     C|-00000000----0000----000--6-5-3-0-000000000---------0000-00------------|

     D|-----------------------------------------------------------------------|
     A|-----------------------------0000000--------00000----------------------|
     F|------5h7--------------------7777777--------77777----------------------|
     C|-----------------------------------------------------------------------|
     G|-3-0------6-5-3-0------------------------------------------------------|
     C|-3-0------6-5-3-0--000000000---------0000-00---------------------------|

             repeat 3x

     D|-----------------------------------------------------------------------|
     A|--------------------------------------------0000000---------000--------|
     F|----------14------10------------------------7777777---------777--------|
     C|----------xx------x----------------------------------------------------|
     G|----------12------8-------6-5-3-0--------------------------------------|
     C|-00000000----0000----000--6-5-3-0-000000000---------0000-00------------|


     D|-----------------------------------------------------------------------|
     A|-----------------------------------------------------------------------|
     F|-----------------------------------------------------------------------|
     C|-----------------------------------------------------------------------|
     G|-6-5-3-0---------------------------------------------------------------|
     C|-6-5-3-0---------------------------------------------------------------|


     D|-------------------------------------------------------------------------|
     A|-------------------------------------------------------------------------|
     F|-------------------------w-----------------------------------------------|
     C|-------------------------a-----------------------------------------------|
     G|-------------------------i----------------------------10---8---10---12---|
     C|-000000000--00000--00000-t-000000000--00000--00000--8----8---8----8------|


     D|-----------------------------------------------------------------------|
     A|-----------------------------------------------------------------------|
     F|-------------------------w---------------------------------------------|
     C|-------------------------a---------------------------------------------|
     G|-------------------------i---------------------------------------------|
     C|-000000000--00000--00000-t-000000000--00000--00000---------------------|


     D|------------------------------------------------------------------------|
     A|------------------------------------------------------------------------|
     F|------------------------------------------------------------------------|
     C|------------------------------------------------------------------------|
     G|--------10---8---10---12---10---8---10---12-0---------------------------|
     C|-000--8----8---8----8----8----8---8----8----0---------------------------|r


            And your done!!!!   i hope you liked the tab   PLEASE RATE!!!! thnx :P
Добавлено: 03.03.2012
Другие материалы по этой песне:

Страница создана 03.03.2012
http://primanota.ru/burning-graceland/a-day-in-the-life-of-george-clooney-chords.htm
Привет, Гость.
Предлагаем пройти революционный курс по гитаре.
Подарок от PrimaNota.Ru, забирай!