PrimaNota.ru - самый крупный в мире бесплатный архив песенных текстов, аккордов, табулатур и нот


Burning Bridges - I Lie Awake - таба, видео

Регистрация Запомнить меня
Войти через:  Facebook Google Twitter Vk Yandex Mail.ru

Burning Bridges - I Lie Awake - таба, видео

Печатать
Просмотров: 144
E-16-16--14-14--16-16--12-12-----------/
B---0--0---0--0---0--0---0--0----------/
G--------------------------------------/
D--------------------------------------/            2x
A--------------------------------------/
E--------------------------------------/


E-12-12--11-11--12-12--9-9-------------/
B---0--0---0--0---0--0--0-0------------/
G--------------------------------------/
D--------------------------------------/           2x
A--------------------------------------/
E--------------------------------------/
Добавлено: 10.07.2012
Вам также может быть интересно:
Другие материалы по этой песне:
  • Аккорды и текст

Страница создана 10.07.2012
http://primanota.ru/burning-bridges/i-lie-awake-chords.htm
Привет, Гость.
Предлагаем пройти революционный курс по гитаре.
Подарок от PrimaNota.Ru, забирай!