PrimaNota.ru - самый крупный в мире бесплатный архив песенных текстов, аккордов, табулатур и нот


Burning Airlines - The Surgeons House - таба, видео

Регистрация Запомнить меня
Войти через:  Facebook Google Twitter Vk Yandex Mail.ru

Burning Airlines - The Surgeons House - таба, видео

Печатать
Просмотров: 87
Авторы музыки: Burning Airlines
Авторы текста: J. Robbins
The Surgeon's House
by Burning Airlines
from the Identikit Album

transcribed by Travis English travis@english.net
(this file is my own work)




Intro 
e---------------------------------------------------------
B---------------------------------------------------------
G--------0------------------4---------------------------0-
D----------------0----2--/4-------------------------------
A--------------2----2-------------------------------------
E-0-------------------------------------------------------

e------3-----------------------------------0--------------
B----5--------------0-h3----------------------------------
G-h3-----4----0-h3----------------------------------------
D------------------------2--------------------------------
A---------------------------------------------------------
E---------------------------------------------------------

e---------------------------------------------------------
B---------------------------------------------------------
G--------0------------------4---------------------------0-
D----------------0----2--/4-------------------------------
A--------------2----2-------------------------------------
E-0-------------------------------------------------------

e------3-----------------------------------x-x---x---x----
B----5--------------0-h3-------------------3-3---3---5----
G-h3-----4----0-h3-------------------------2-2---2---4----
D------------------------2-----------------x-x---x---x----
A------------------------------------------x-x---x---x----
E---------------------------------------------------------

e---------------------------------------------------------
B---------------------------------------------------------
G--------0------------------4---------------------------0-
D----------------0----2--/4-------------------------------
A--------------2----2-------------------------------------
E-0-------------------------------------------------------

e------3-----------------------------------x-x-x-x---x-x--
B----5--------------0-h3-------------------3-3-3-3---5-5--
G-h3-----4----0-h3-------------------------2-2-2-2---4-4--
D------------------------2-----------------x-x-x-x---x-x--
A------------------------------------------x-x-x-x---x-x--
E---------------------------------------------------------

verse
  where did my ...
e---------------------------------------------------------
B---------------------------------------------------------
G---------------------------------------------------------
D---------------------------------------------------------
A--------------5-------------0-h-5--7---------------------
E-0-----------------------------------5-------------------

  where is ....
e---------------------------------------------------------
B---------------------------------------------------------
G---------0------------------2--2-----4-------------------
D-------4------0----------0-------------------------------
A--------------5-------------------2----------------------
E-0--------------------3----------------------------------

  she looked ...
e---------------------------------------------------------
B---------------------------------------------------------
G----------------------------------------------0-h2---0-2-
D---------0-----------------------------------------0-----
A-------4------5-------------0-h-5--7---------------------
E-0-----------------------------------5-------------------

  anywhere else  ...
e---------------------------------------------------------
B---------------------------------------------------------
G---------0----------------2----------4-------------------
D-------4------0------------------------------------------
A--------------5---------2---------2----------------------
E-0--------------------3----------------------------------

  smile
e---------------------------0-----------------------------
B---------------------------1-----------------------------
G---------------------------2-----------------------------
D---------------------------2-----------------------------
A---0-----------------------------------------------------
E---------------------------------------------------------

                                        was this
e--7-------------------------------------------0----------
B----5------5-4---4---4------------------------1----------
G------7---------------------------------------2----------
D--------7------5---6---7----------------------2----------
A----------------------------------------------0----------
E---------------------------------------------------------

   before ...
e---------------------------------------------------------
B---------------------------------------------------------
G------4--------------------------------------------------
D--------------------------------------------etc----------
A--2------------------------------------------------------
E---------------------------------------0-----------------

making the best of it?


the pattern basically continues from there, played louder in
some portions. i think that he alternates some of the stuff between 
open strings and fretted notes. for example you can play the 
decending Am section (second to last line above) with the open position
Am chord, and it'll sound more like what he does the first time. 
I put the fretted version in here because he uses it later, and 
also scoots it up to the 12th fret for the "solo". also the Am chord
in the verse (which is made an Am by the bass line) can be played
with open strings, and it sounds cool. 

have fun.


     
Добавлено: 10.08.2013
Вам также может быть интересно:
Другие материалы по этой песне:

Страница создана 22.04.2012
http://primanota.ru/burning-airlines/the-surgeons-house-chords.htm
Привет, Гость.
Предлагаем пройти революционный курс по гитаре.
Подарок от PrimaNota.Ru, забирай!