PrimaNota.ru - самый крупный в мире бесплатный архив песенных текстов, аккордов, табулатур и нот


Burning Airlines - The Deluxe War Baby - таба, видео

Регистрация Запомнить меня
Войти через:  Facebook Google Twitter Vk Yandex Mail.ru

Burning Airlines - The Deluxe War Baby - таба, видео

Печатать
Просмотров: 106
Уроки эстрадного вокала в Санкт-Петербурге
Авторы музыки: Burning Airlines
Авторы текста: J. Robbins


Burning Airlines - The Deluxe War Baby

This tab is a bit incomplete, but I plan on working more on it.

Standard tuning, all strings tuned down a half a step.

Any questions or comments or please give a shout out if you looked at this
tab to give me motivation to post more for Burning Airlines.

email:   leows@msoe.edu
xBLAHMASTERx

|-----------------|
|-----------------|
|---------2--42-4-|
|------4------0---|
|-2-02--2--2------|
|-----------------|

Palm mute the first 2/3 of the above.

|--------0--------------------|
|-----------------------------|
|-----------------------------|
|-------------6--6-6---5--5-5-|
|-2p0---------6--6-6---5--5-5-|
|---h3p0------4--4-4---3--3-3-|

|------------------------------------|
|--------------3-4-----------0-------|
|------------2----------4-2----2-----|
|-4--4--4--0--------2-4----------2---|
|-4--4--4--------------------------0-|
|-2--2--2----------------------------|

                                   v---bend
|------------------------------------|
|--------------3-4-----------0-----3-|
|------------2----------4-2----2-----|
|-4--4--4--0--------2-4----------2---|
|-4--4--4----------------------------|
|-2--2--2----------------------------|

|---------------------------------2-----7--7--10|
|-----3------3--------3--------3----3----7--7----|
|------------------4---4--4p2h4--4---------------|
|4p2h4--4p2h4-3p2h3--3---------------------------|
|------------------------------------------------|
|------------------------------------------------|

Добавлено: 05.12.2013
Другие материалы по этой песне:

Страница создана 23.07.2012
http://primanota.ru/burning-airlines/the-deluxe-war-baby-chords.htm
Привет, Гость.
Предлагаем пройти революционный курс по гитаре.
Подарок от PrimaNota.Ru, забирай!