PrimaNota.ru - самый крупный в мире бесплатный архив песенных текстов, аккордов, табулатур и нот


Burning Airlines - Scissoring - таба, видео

Регистрация Запомнить меня
Войти через:  Facebook Google Twitter Vk Yandex Mail.ru

Burning Airlines - Scissoring - таба, видео

Печатать
Просмотров: 88
Уроки эстрадного вокала в Санкт-Петербурге


Burning Airlines - Scissoring

The following is almost complete.
There is a short section of harmonics to be tabbed yet as well as more 
tabbing at the end of the song.

Please give me an email if you looked at this tab so that I know people are
looking for Burning Airlines Tabs.

email:   leows@msoe.edu

xBLAHMASTERx

C#
G#
C#
F#
A#
D#

(Tune to drop D from standard tuning then tune all strings down 1/2 step)

All of the following notes are harmonics unless specified.

|-------------------------------------|
|-------------------------------------|
|---5-----------5-----------5---------|
|-----5-----------5-----------5-------|
|-4-----4---4-4-----4---4-4-----4---4-|
|-------------------------------------|

|-------------------------------------|
|-------------------------------------|
|---5---5-------5---5-------5---5-----|
|-----5-----------5-----------5-------|
|-4-----------4-----------4---------4-|
|-------------------------------------|

|-------------------------------------------|
|-------------------------------------------|
|-------------------------------------------|
|-------------------------------------------|
|-------------------4---------------------4-|
|-3-3-3-4---3-3-4-4-----3-3-3-4---3-3-4-4---|

The 3's above are actually 2.75, but it was easier to fit them as 3's.

The following tabs are not harmonics, but rather the last part of the song.

|------------
|------------
|------------
|-4---x9---8-
|-4---x9---8-
|-4---x9---8-

|-----------------------------
|-----------------------------
|-9999999---9999999---9999999-
|-9999999---9999999---9999999-
|-7777777---7777777---7777777-
|-----------------------------

Добавлено: 20.12.2013
Другие материалы по этой песне:

Страница создана 16.07.2012
http://primanota.ru/burning-airlines/scissoring-chords.htm
Привет, Гость.
Предлагаем пройти революционный курс по гитаре.
Подарок от PrimaNota.Ru, забирай!