PrimaNota.ru - самый крупный в мире бесплатный архив песенных текстов, аккордов, табулатур и нот


Burn - Shall Be Judged - таба, видео

Регистрация Запомнить меня
Войти через:  Facebook Google Twitter Vk Yandex Mail.ru

Burn - Shall Be Judged - таба, видео

Печатать
Просмотров: 35
e|-----------------------|
B|-----------------------|
G|-----------------------|
D|-2-2--------2-2--------|
A|-2-2--------2-2--------|
E|-0-0--------0-0--------|


e|---------------------------|
B|---------------3-5--5-5--7-|
G|---------------1-3--3-3--5-|
D|-2-------------1-3--3-3--5-| 1,2,3,5,6,7
A|-2--2-2-2-2-2--------------|
E|-0--0-0-0-0-0--------------|
      P M P M PM

e|--------------------|
B|--------------------|
G|----------7--10--10-|
D|-7--5--4--7--10--10-| 4,8
A|-7--5--4--5--8---8--|
E|-5--3--2------------|

e|----------------------------------------------------------|
B|----------------------------------------------------------|
G|----------------------------------------------------------|
D|-8-8-8-8-8-8-12-11-11-14-14-14-8-8-8-8-8-8-12-11-11-6-6-6-| x2
A|-8-8-8-8-8-8-12-11-11-14-14-14-8-8-8-8-8-8-12-11-11-6-6-6-|
E|-6-6-6-6-6-6-10-9--9--12-12-12-6-6-6-6-6-6-10-9--9--4-4-4-|

e|-----------------------------------------------|
B|-----------------------------------------------|
G|-----------------------------------------------|
D|-2------2--------------------------------------|
A|-2------2------2-2-2-2-2-2-2-2-2-2-2-2-2-2-2-2-|
E|-0------0------0-0-0-0-0-0-0-0-0-0-0-0-0-0-0-0-|
                 P M P M P M P M P M P M P M P M

e|--------------------------|
B|--------------------------|
G|-7-8---------7-8-----8/10-|
D|--------------------------| x6
A|-5-6-2-2-2-2-5-6-2-2-6/8--|
E|-----0-0-0-0-----0-0------|
       P M P M     P M

e|-------------------------------------------------------|
B|-------------------------------------------------------|
G|-10--8-10101010-8-10101010-8-10101010-1010101010101010-|
D|-------------------------------------------------------|
A|-8---6-8-8-8-8--6-8-8-8-8--6-8-8-8-8--8-8-8-8-8-8-8-8--|
E|-------------------------------------------------------|

e|---------------------------|
B|---------------3-5--5-5--7-|
G|---------------1-3--3-3--5-|
D|-2-------------1-3--3-3--5-| 1,2,3,5,6,7
A|-2--2-2-2-2-2--------------|
E|-0--0-0-0-0-0--------------|
      P M P M PM

e|--------------------|
B|--------------------|
G|----------7--10--10-|
D|-7--5--4--7--10--10-| 4,8
A|-7--5--4--5--8---8--|
E|-5--3--2------------|

e|-----------------------------------------------------------------|
B|-----------------------------------------------------------------|
G|-----------------------------------------------------------------|
D|-8-8-8-8-8-8-8-8-8-8-8-8-8-8-8-8-8-8-8-8-8-8-8-8-8-8-8-8-8-8-8-8-|
A|-----------------------------------------------------------------|
E|-6-6-6-6-6-6-6-6-6-6-6-6-6-6-6-6-6-6-6-6-6-6-6-6-6-6-6-6-6-6-6-6-|

e|------------------------------------------------------------------------------------|
B|------------------------------------------------------------------------------------|
G|------------------------------------------------------------------------------------|
D|-12--7-7-10-6-6-6-6-8-8-8-8-8-8-8-8-8-8-8-8-8-8-8-8-8-8-8-8-8-8-8-8-8-8-8-8-8-8-8-8-| x2
A|-12--7-7-10-6-6-6-6-----------------------------------------------------------------|
E|-10--5-5-8--4-4-4-4-6-6-6-6-6-6-6-6-6-6-6-6-6-6-6-6-6-6-6-6-6-6-6-6-6-6-6-6-6-6-6-6-|

e|-------------------------------------------------------------------------------------|
B|--------------------------------------------------------3-3-3-3-3--3-3-3-3-3-3-3-3-3-|
G|-------------------------------------------------------------------------------------|
D|-12--7-7-10-6-6-6-6-2-----------------------------------2-2-2-2-2--2-2-2-2-2-2-2-2-2-|
A|-12--7-7-10-6-6-6-6-2----2-2-2-2-2-2-2-2-2-2-2-2--------2-2-2-2-2--2-2-2-2-2-2-2-2-2-|
E|-10--5-5-8--4-4-4-4-0----0-0-0-0-0-0-0-0-0-0-0-0--------0-0-0-0-0--0-0-0-0-0-0-0-0-0-|
                           P M P M P M P M P M P M

e|-------------------------------------------|
B|---------------------------------3--3--3-3-|
G|-------------------------------------------|
D|-------------------------------------------|
A|-2-2-2-2-2-2-2-2-2-2-2-2-2-2-2-2-2--2--2-2-|
E|-0-0-0-0-0-0-0-0-0-0-0-0-0-0-0-0-0--0--0-0-|
   P M P M P M P M P M P M P M P M 
Добавлено: 29.11.2015
Другие материалы по этой песне:
  • Аккорды и текст

Страница создана 29.11.2015
http://primanota.ru/burn/shall-be-judged-chords.htm
Привет, Гость.
Предлагаем пройти революционный курс по гитаре.
Подарок от PrimaNota.Ru, забирай!