PrimaNota.ru - самый крупный в мире бесплатный архив песенных текстов, аккордов, табулатур и нот


Burn Your Wishes - Burn Your Wishes - таба, видео

Регистрация Запомнить меня
Войти через:  Facebook Google Twitter Vk Yandex Mail.ru

Burn Your Wishes - Burn Your Wishes - таба, видео

Печатать
Просмотров: 110
Song: Burn Your Wishes
Artist: Burn Your Wishes
Album: (Not yet released)

For you people that don't know, Burn your wishes is a Band formed by Ken Susi  of
Unearth and Adam D of Killswitch Engage, This is one of their songs that are on
their Myspace page, I listened to it and decided why not tab it. These are the
basic parts of the song, There are other small parts in the song that I haven't
figured out because they are hard to hear. Here is the tab

This song is in Drop C (CGCFAD)

Intro (Clean, Add some reverb) 
D|---------------------------------|
A|---------------------------------|
F|---------------------------------|
C|--8-8888-8-8888-0----------------| x8
G|--8-8888-8-8888-0----------------|
C|--8-8888-8-8888-0----------------|

(Distorted)
D|---------------------------------|
A|---------------------------------|
F|---------------------------------|
C|--8-8-8-0-0-0--------------------| x13
G|--8-8-8-0-0-0--------------------|
C|--8-8-8-0-0-0--------------------|
    . . . . . .

(2:15)
D|---------------------------------|
A|---------------------------------|
F|---------------------------------|
C|--3-3-3-3-5-5-5-5-0000-0---------|
G|--3-3-3-3-5-5-5-5-0000-0---------|
C|--3-3-3-3-5-5-5-5-0000-0---------|
                    ....

If you have any questions or any other parts of the tab, Then e-mail me at mattside92@aol.com
Добавлено: 03.05.2012
Другие материалы по этой песне:
  • Аккорды и текст

Страница создана 03.05.2012
http://primanota.ru/burn-your-wishes/burn-your-wishes-chords.htm
Привет, Гость.
Предлагаем пройти революционный курс по гитаре.
Подарок от PrimaNota.Ru, забирай!