PrimaNota.ru - самый крупный в мире бесплатный архив песенных текстов, аккордов, табулатур и нот


Burn The Priest - Resurrection 9 - текст песни, таба, видео

Регистрация Запомнить меня
Войти через:  Facebook Google Twitter Vk Yandex Mail.ru

Burn The Priest - Resurrection 9 - текст песни, таба, видео

Печатать
Просмотров: 129
Авторы текста: Steve Austin
Band:  (Burn the Priest)
Album: (Burn the Priest)
Song:  (Resurrection #9)




Transcribed By: (CapitalPunishme)
Email:          (Fly4926@msn.com)


.  - palm mute           
\  - slide down to       
h  - hammer on           
p  - pull off            
~  - vibrato bend


Tuning D A D G B E

|-------------------------------------------------------------------|
|-------------------------------------------------------------------|
|-------------------------------------------------------------------|
|-------------------------------------------------------------------|
|-~12---------------------------------------------------------------|
|-~12—(x16)-~12-12-~12-12-~12-12-~12-12-16h17p16--------------------|
                .      .      .      .
|-------------------------------------------------------------------|
|-------------------------------------------------------------------|
|-------------------------------------------------------------------|
|-------------------------------------------------------------------|
|-------------------------------------------------------------------|
|-12-12--~12-~12--12-~12-12-~12-12-~12—16h17p16-(x7)----------------|
  .  .            .      .      .            
|------------------------------------------------------------------------|
|------------------------------------------------------------------------|
|-(0:33)-----------------------------------------------------------------|
|------------------------------------------------------------------------|
|-12h13p12----12h13p12----12h13p12----12h13p12----16h17p16---12h13p12----
|----------0-----------0-----------0-----------0-----------0---------(x4)|
           .           .           .           .           .   
|-------------------------------------------------------------------|
|-(0:43)------------------------------------------------------------|
|-------------------------------------------------------------------|
|-3-2--321---000--0---000--0---000-000--0---------------------------|
|-3-2--321---000--0---000--0---000-000--0—repeat strumming----------|
|-3-2--321---000--0---000--0---000-000--0---------------------------|
       ...   ...  .   ...  .   ... ...  .


|-------------------------------------------------------------------|
|-------------------------------------------------------------------|
|-------------------------------------------------------------------|
|-3-2--321---1p0---1p0---1p0---1p0---1p0----------------------------|
|-3-2--321---1p0-0-1p0-0-1p0-0-1p0-0-1p0-0-0—(x9)-------------------|
|-3-2--321---1p0-0-1p0-0-1p0-0-1p0-0-1p0-0-0------------------------|
       ...       .     .     .     .     . .
|-------------------------------------------------------------------|
|-(1:18)------------------------------------------------------------|
|-------------------------------------------------------------------|
|-2-1-4-3--------1h2p1--4--2--3--2--1------h2p1---------------------|
|-2-1-4-3-(x3)---1h2p1--4--2--3--2--1--1-1-h2p1-(x8)----------------|
|-2-1-4-3--------1h2p1--4--2--3--2--1--1-1—h2p1---------------------|
                        .  .  .  .  .  . .   
|-------------------------------------------------------------------|
|-------------------------------------------------------------------|
|-------------------------------------------------------------------|
|-0h1p0--3-1-2-0-------1p0-------1h2p1--4-2-3-2-1------h2p1---------|
|-0h1p0--3-1-2-0--0-0—-1p0—(x4)—-1h2p1--4-2-3-2-1--1-1-h2p1---(x4)--|
|-0h1p0--3-1-2-0--0-0—-1p0-------1h2p1--4-2-3-2-1--1-1-h2p1---------|
         . . .    . .                   . . . . .  . . 
|-------------------------------------------------------------------|
|------------(2:37)-------------------------------------------------|
|-------------------------------------------------------------------|
|-(bass solo--2-2-3--0-0--12-10-12-12-7-7-10------------------------|
|--than play)-2-2-3--0-0--12-10-12-12-7-7-10—(x8)-------------------|
|-------------2-2-3--0-0--12-10-12-12-7-7-10------------------------|
              . . .       
|-------------------------------------------------------------------|
|-------------------------------------------------------------------|
|-(on 8x end--------------------------------------------------------|
|----with)----8-8-8-8-8--8-7-0-3-5-0-0------------------------------|
|-------------8-8-8-8-8--8-7-0-3-5-0-0---than-----------------------|
|-------------8-8-8-8-8--8-7-0-3-5-0-0------------------------------|
              . . . . .  
|-------------------------------------------------------------------|
|-------------------------------------------------------------------|
|-------------------------------------------------------------------|
|-12-10-12-12-7-10------8-8-8-8-8--8-7-0-3-5-0-0--------------------|
|-12-10-12-12-7-10—(5x)-8-8-8-8-8--8-7-0-3-5-0-0--------------------|
|-12-10-12-12-7-10------8-8-8-8-8--8-7-0-3-5-0-0--------------------|
                        . . . . .
|-------------------------------------------------------------------|
|-------------------------------------------------------------------|
|-------------------------------------------------------------------|
|-(End with)--12--11--10--9--8--0--3--5--0-0------------------------|
|-------------12--11--10--9--8--0--3--5--0-0------------------------|
|-------------12--11--10--9--8--0--3--5--0-0------------------------|

Добавлено: 04.06.2012
Другие материалы по этой песне:

Страница создана 22.03.2012
http://primanota.ru/burn-the-priest/resurrection-9-chords.htm
Привет, Гость.
Предлагаем пройти революционный курс по гитаре.
Подарок от PrimaNota.Ru, забирай!