PrimaNota.ru - самый крупный в мире бесплатный архив песенных текстов, аккордов, табулатур и нот


Burn The Priest - Dimera - текст песни, таба, видео

Регистрация Запомнить меня
Войти через:  Facebook Google Twitter Vk Yandex Mail.ru

Burn The Priest - Dimera - текст песни, таба, видео

Печатать
Просмотров: 138
Авторы текста: Judd Prather
Guitar 1: D-A-D-G-B-E
 Guitar 2: D-A-D-G-B-D


|Guitar 1
|--------------------------------------------------------------------------|
|--------------------------------------------------------------------------|
|--------------------------------------------------------------------------|
|0-------------------6-----------------5-----------------6-------------7---|
|0-------------------6-----------------5-----------------6-------------7---|
|0-------------------6-----------------5-----------------6-------------7---|
|
Guitar 2
|55555555555555665454555555555555665454555555555555665454555555555555665454|
|--------------------------------------------------------------------------|
|--------------------------------------------------------------------------|
|--------------------------------------------------------------------------|
|--------------------------------------------------------------------------|
|--------------------------------------------------------------------------|



|Guitar 1
|--------------------------------------------------------------------------|
|--------------------------------------------------------------------------|
|--------------------------------------------------------------------------|
|0-------------------6-----------------5-----------------6-------------7---|
|0-------------------6-----------------5-----------------6-------------7---|
|0-------------------6-----------------5-----------------6-------------7---|
|
|Guitar 2
|55555555555555665454555555555555665454555555555555665454555555555555665454|
|--------------------------------------------------------------------------|
|--------------------------------------------------------------------------|
|--------------------------------------------------------------------------|
|--------------------------------------------------------------------------|
|--------------------------------------------------------------------------|



Guitar 1 (Palm muted):
|----------------------------------------------------------|
|----------------------------------------------------------|
|----------------------------------------------------------|
|00-00-----------00-00-00-00-00-00-------------00-00-00-00-|
|00-00-----------00-00-00-00-00-00-------------00-00-00-00-|
|00-00-----------00-00-00-00-00-00-------------00-00-00-00-|
 .. ..           .. .. .. .. .. ..             .. .. .. ..

Guitar 1 (Palm muted):
|----------------------------------------------------------|
|----------------------------------------------------------|
|----------------------------------------------------------|
|00-00-----------00-00-00-00-00-00-------------00-00-00-00-|
|00-00-----------00-00-00-00-00-00-------------00-00-00-00-|
|00-00-----------00-00-00-00-00-00-------------00-00-00-00-|
 .. ..           .. .. .. .. .. ..             .. .. .. ..


Guitar 1:
|-----------------------------------------------------------------|
|-----------------------------------------------------------------|
|-----------------------------------------------------------------|
|00-00-5---------00-00-00-00-00-00-6-----------00-00-00-00-00-00-3|
|00-00-5---------00-00-00-00-00-00-6-----------00-00-00-00-00-00-3|
|00-00-5---------00-00-00-00-00-00-6-----------00-00-00-00-00-00-3|
 .. ..           .. .. .. .. .. ..             .. .. .. .. .. ..



Guitar 1:
|-----------------------------------------------------------------------------|
|-----------------------------------------------------------------------------|
|-----------------------------------------------------------------------------|
|00-00-00-00-00-00-5---------00-00-5--00-00-6--------------00-00-00-00-00-00-3|
|00-00-00-00-00-00-5---------00-00-5--00-00-6--------------00-00-00-00-00-00-3|
|00-00-00-00-00-00-5---------00-00-5--00-00-6--------------00-00-00-00-00-00-3|
 .. .. .. .. .. ..           .. ..    .. ..                .. .. .. .. .. ..



Guitar 1:
|----------------------------------------------|
|----------------------------------------------|
|----------------------------------------------|
|0-2--00-00-5-------00-00-6----------5---------|
|0-2--00-00-5-------00-00-6----------5---------|
|0-2--00-00-5-------00-00-6----------5---------|
 .    .. ..         .. ..



Both Guitars (do this riff 3 times)
|-----------------------------------------------|
|-----------------------------------------------|
|-----------------------------------------------|
|1-001-1-001-1-001-1-5-5-1-001-1-001-1-001-1-5-5|
|1-001-1-001-1-001-1-5-5-1-001-1-001-1-001-1-5-5|
|1-001-1-001-1-001-1-5-5-1-001-1-001-1-001-1-5-5|
                                               


Guitar 1:
|----------------------------------------------------------|
|----------------------------------------------------------|
|----------------------------------------------------------|
|----------------------------------------------------------|
|----------------------------------------------------------|
|----------------------------------------------------------|
|0000000000000000000000000000000000000000000000000000000000|
|
|Guitar 2:
|----------------------------------------------------------|
|----------------------------------------------------------|
|----------------------------------------------------------|
|00-00-----------00-00-00-00-00-00-------------00-00-00-00-|
|00-00-----------00-00-00-00-00-00-------------00-00-00-00-|
|00-00-----------00-00-00-00-00-00-------------00-00-00-00-|
 .. ..           .. .. .. .. .. ..             .. .. .. ..


|Guitar 1:
|----------------------------------------------------------|
|----------------------------------------------------------|
|----------------------------------------------------------|
|----------------------------------------------------------|
|----------------------------------------------------------|
|----------------------------------------------------------|
|0000000000000000000000000000000000000000000000000000000000|
|
|Guitar 2:
|----------------------------------------------------------|
|----------------------------------------------------------|
|----------------------------------------------------------|
|00-00-----------00-00-00-00-00-00-------------00-00-00-00-|
|00-00-----------00-00-00-00-00-00-------------00-00-00-00-|
|00-00-----------00-00-00-00-00-00-------------00-00-00-00-|
 .. ..           .. .. .. .. .. ..             .. .. .. ..


Both Guitars
|-----------------------------------------------------------------------|
|-----------------------------------------------------------------------|
|-----------------------------------------------------------------------|
|00-00-5---------00-00-00-00-00-00-6-----------00-00-00-00-00-00-3------|
|00-00-5---------00-00-00-00-00-00-6-----------00-00-00-00-00-00-3------|
|00-00-5---------00-00-00-00-00-00-6-----------00-00-00-00-00-00-3------|
 .. ..           .. .. .. .. .. ..             .. .. .. .. .. ..


Both Guitars
|------------------|
|------------------|
|------------------|
|00-00-00-00-00-00-|
|00-00-00-00-00-00-|
|00-00-00-00-00-00-|
 .. .. .. .. .. ..


[pause]


Both Guitars
|----------------------|
|----------------------|
|----------------------|
|0000005----0000006----|
|0000005----0000006----|
|0000005----0000006----|
 ......     ......


Both Guitars
|-----------------------------------------|
|-----------------------------------------|
|-----------------------------------------|
|00-00-00-00-00-00-3-----002-------0000003|
|00-00-00-00-00-00-3-----002-------0000003|
|00-00-00-00-00-00-3-----002-------0000003|
 .. .. .. .. .. ..       ..        ......


Both Guitars (10 times):
|--------------------------------|
|--------------------------------|
|--------------------------------|
|6-----0-----5-------------------|
|4-----0-----3-------------------|
|4-----0-----3-------------------|



Both Guitars:
|---------------------------------------------------------|
|---------------------------------------------------------|
|---------------------------------------------------------|
|6--------------------------------------------------------|
|4--------------------------------------------------------|
|4--------------------------------------------------------|
Добавлено: 30.04.2012
Другие материалы по этой песне:
  • Аккорды и текст

Страница создана 08.04.2012
http://primanota.ru/burn-the-priest/dimera-chords.htm
Привет, Гость.
Предлагаем пройти революционный курс по гитаре.
Подарок от PrimaNota.Ru, забирай!