PrimaNota.ru - самый крупный в мире бесплатный архив песенных текстов, аккордов, табулатур и нот


Burn In Silence - The Age In Which Tomorrow Brings - таба, видео

Регистрация Запомнить меня
Войти через:  Facebook Google Twitter Vk Yandex Mail.ru

Burn In Silence - The Age In Which Tomorrow Brings - таба, видео

Печатать
Просмотров: 124
Уроки эстрадного вокала в Санкт-Петербурге
This is an AWEOSME song from Burn In Silence
Burn In Silence isnt really a big band YET but they should be

heres the bands myspace
http://www.myspace.com/burninsilence  

and heres more Burn In Silence stuff
http://www.burninsilence.tv/

should be pretty easy to follow.
drop D

* = palm mute
~ = let ring
p = pull off
t = tremolo pick



Guitar 1 and 2
E|------------------------------------------------------------------|    |
B|------------------------------------------------------------------|    |
G|------------------------------------------------------------------|    |
D|-2-2-2--2-2-2-2--2-2-2-2--2-2-2-2--8-8-8--8-8-8-8--4-4-4--4-4-4-4-|X3  |
A|-2-2-2--2-2-2-2--2-2-2-2--2-2-2-2--8-8-8--8-8-8-8--4-4-4--4-4-4-4-|    |
D|-2-2-2--2-2-2-2--2-2-2-2--2-2-2-2--8-8-8--8-8-8-8--4-4-4--4-4-4-4-|    |
   * *    * * *    * * *    * * *    * *    * * *    * *    * * *        |
                                                                         |I
guitar 2 plays this after playing above measure TWICE                    |N
(comes in at 0:20)                                                       |T
E|------------------------------------|                                  |R
B|---------------------------5-4-2-4-2|                                  |O
G|---4-3-6----4-3------4-3-6----------|                                  |
D|-2--------2-----4--2----------------|                                  |
A|------------------------------------|                                  |
D|------------------------------------|                                  |
  tttttttttttttttttttttttttttttttttttt                                   |
                                                                         |
Guitar 1 (Plays this is after playing the first measure 3 times)         |
E|-----------------------------------------------------------------|     |
B|-----------------------------------------------------------------|     |
G|-----------------------------------------------------------------|     |
D|-2-2-2--2-2-2-2--2-2-2-2--2-2-2-2--8-8-8--8-8-8-8--4-4--4--444444|     |
A|-2-2-2--2-2-2-2--2-2-2-2--2-2-2-2--8-8-8--8-8-8-8--4-4--4--444444|     |
D|-2-2-2--2-2-2-2--2-2-2-2--2-2-2-2--8-8-8--8-8-8-8--4-4--4--444444|     |
   * *    * * *    * * *    * * *    * *    * * *    * *     ******      |

GUITAR 1 and 2                 
E|----------------------------------------------------------|            |B
B|----------------------------------------------------------|            |R
G|----------------------------------------------------------|            |E
D|-2-2222--2222--888-88-888-88--2-2222--2222--444-44-444-44-|            |A
A|-2-2222--2222--888-88-888-88--2-2222--2222--444-44-444-44-|X2          |K
D|-2-2222--2222--888-88-888-88--2-2222--2222--444-44-444-44-|            |D
   * ****  ****  *** ** *** **  * ****  ****  *** ** *** **              |O
                                                                         |W
                                                                         |N

GUITAR 1
E|------------------------------------|                                  |
B|------------------------------------|                                  |
G|------------------------------------|                                  |
D|-2~--8~---2~--4~---2~--8~---2~--4~--|                                  |B
A|-2~--8~---2~--4~---2~--8~---2~--4~--|                                  |R
D|-2~--8~---2~--4~---2~--8~---2~--4~--|                                  |I
                                                                         |D
GUITAR 2 you can hear it in the background and when to come in           |G
E|----------------------------------------------------|                  |E
B|----------------------------------------------------|                  |
G|--6-4---------6-4---6-4------6-4------6-4-----------|                  |
D|------6-4--------6-4---6-4------6-4------6-4-6-4----|                  |
A|------------------------------------------------6-4-|                  |
D|----------------------------------------------------|                  |

Guitar 1
E|------------------------------------------------------------------|    |
B|------------------------------------------------------------------|    |
G|------------------------------------------------------------------|    |
D|-2-2-2--2-2-2-2--2-2-2-2--2-2-2-2--8-8-8--8-8-8-8--4-4-4--4-4-4-4-|X3  |
A|-2-2-2--2-2-2-2--2-2-2-2--2-2-2-2--8-8-8--8-8-8-8--4-4-4--4-4-4-4-|    |R
D|-2-2-2--2-2-2-2--2-2-2-2--2-2-2-2--8-8-8--8-8-8-8--4-4-4--4-4-4-4-|    |E
   * *    * * *    * * *    * * *    * *    * * *    * *    * * *        |F
                                                                         |R
Guitar 2                                                                 |A
E|--------------------------------------------|                          |I
B|--------------------------------5-4---7-5-4-|                          |N
G|---4-3-6---3-4-3------4-3-6---3-----4-------|                          |
D|-2-------4-------4--2-------4---------------|X2                        |
A|--------------------------------------------|                          |
D|--------------------------------------------|                          |
  tttttttttttttttttttttttttttttttttttttttttttt                           |

GUITAR 1 AND 2                                                           |
E|-----------------------------------------------|                       |
B|-----------------------------------------------|                       |
G|-----------------------------------------------|                       |B
D|-1---2p1-1-1-2p1-1--2-2----2p1-1-1-2p1-1-6-6---|X2                     |R
A|-1X8-2p1-1-1-2p1-1--2-2X8--2p1-1-1-2p1-1-6-6X8-|                       |E
D|-1---2p1-1-1-2p1-1--2-2----2p1-1-1-2p1-1-6-6---|                       |A
   *       * *     *    *        * *     *   *                           |K
                                                                         |D
guitar 1 and 2                                                           |O
E|---------------------------------|                                     |W
B|---------------------------------|                                     |N
G|---------------------------------|                                     |
D|-2-2--2-2--2---2---2---6----4----|X2                                   |2
A|-2-2--2-2--2X6-2X4-2X8-6X16-4X16-|                                     |
D|-2-2--2-2--2---2---2---6----4----|                                     |
   * *  * *  *   *   *   *    *                                          |

Guitar 1
E|------------------------------------------------------------------|    |
B|------------------------------------------------------------------|    |
G|------------------------------------------------------------------|    |
D|-2-2-2--2-2-2-2--2-2-2-2--2-2-2-2--8-8-8--8-8-8-8--4-4-4--4-4-4-4-|X3  |
A|-2-2-2--2-2-2-2--2-2-2-2--2-2-2-2--8-8-8--8-8-8-8--4-4-4--4-4-4-4-|    |R
D|-2-2-2--2-2-2-2--2-2-2-2--2-2-2-2--8-8-8--8-8-8-8--4-4-4--4-4-4-4-|    |E
   * *    * * *    * * *    * * *    * *    * * *    * *    * * *        |F
                                                                         |R
Guitar 2                                                                 |A
E|--------------------------------------------|                          |I
B|--------------------------------5-4---7-5-4-|                          |N
G|---4-3-6---3-4-3------4-3-6---3-----4-------|                          |
D|-2-------4-------4--2-------4---------------|X2                        |
A|--------------------------------------------|                          |
D|--------------------------------------------|                          |
  tttttttttttttttttttttttttttttttttttttttttttt            

     GUITAR 1 AND 2
E|---------------------|                                                 |B
B|---------------------|                                                 |R
G|---------------------|                                                 |I
D|-2p1-2~---2p1-6~-----|X4                                               |D
A|-2p1-2~---2p1-6~-----|                                                 |G
D|-2p1-2~---2p1-6~-----|                                                 |E
                                                                         |
                                                                         |2

Guitar 1 plays this part  then plays this until the end.                 |F
E|----------------------| |-----------------------------|                |I
B|----------------------| |-----------------------------|                |N
G|----------------------| |-----------------------------|                |A
D|-2-2-2-2-2~---2p1--6~-| |--2p1--2~---2p1--6~----------|                |L
A|-2-2-2-2-2~---2p1--6~-| |--2p1--2~---2p1--6~----------|                |
D|-2-2-2-2-2~---2p1--6~-| |--2p1--2~---2p1--6~----------|                |B
   * * * *                                                               |R
                                                                         |E
Guitar 2 plays this until the end                                        |A
E|------------------------------------------------|                      |K
B|------------------------------------------------|                      |D
G|------------------------------------------------|                      |O
D|-2-2-2-2-2--2--2-2--2p1--6-6-6-6-6-6--6--6-6----|                      |W
A|-2-2-2-2-2--2--2-2--2p1--6-6-6-6-6-6--6--6-6----|                      |N
D|-2-2-2-2-2--2--2-2--2p1--6-6-6-6-6-6--6--6-6----|                      |
   * * * * *  *  * *       * * * * * *  *  * *                           |A
E|--------------------------------------------------|                    |N
B|--------------------------------------------------|                    |D
G|--------------------------------------------------|                    |
D|-2p1--2-2-2-2-2--2--2-2--2p1--6-6-6-6-6-6--6--6-6-|                    |E
A|-2p1--2-2-2-2-2--2--2-2--2p1--6-6-6-6-6-6--6--6-6-|                    |N
D|-2p1--2-2-2-2-2--2--2-2--2p1--6-6-6-6-6-6--6--6-6-|                    |D
        * * * * *  *  * *       * * * * * *  *  * *                      |I
                                                                         |N
E|---------------------------------------------|                         |G
B|---------------------------------------------|                         |
G|---------------------------------------------|                         |
D|-2-1-2-2-2--2--2-2--2-1-6-6-6--6--6-6--------|X2 second time play      |
A|-2-1-2-2-2--2--2-2--2-1-6-6-6--6--6-6--------|      ending             |
D|-2-1-2-2-2--2--2-2--2-1-6-6-6--6--6-6--------|                         |
   * * * * *  *  * *  * * * * *  *  * *                                  |

 GUITAR 1 and GUITAR 2 both end on this                                  |
E|------------------|                                                    |
B|------------------|                                                    |E
G|------------------|                                                    |N
D|-6-6-6-6-6-6------|                                                    |D
A|-6-6-6-6-6-6------|                                                    |
D|-6-6-6-6-6-6------|                                                    | 
   * * * * * *                                                           |

If you have any questions email is hammerdogg20@hotmail.com
AOL SN is hammerdogg20
ill be putting me playing this on youtube once i record it
Добавлено: 04.03.2012
Другие материалы по этой песне:

Страница создана 04.03.2012
http://primanota.ru/burn-in-silence/the-age-in-which-tomorrow-brings-chords.htm
Привет, Гость.
Предлагаем пройти революционный курс по гитаре.
Подарок от PrimaNota.Ru, забирай!