PrimaNota.ru - самый крупный в мире бесплатный архив песенных текстов, аккордов, табулатур и нот


Burlap To Cashmere - Anybody Out There - аккорды и текст, таба, видео

Регистрация Запомнить меня
Войти через:  Facebook Google Twitter Vk Yandex Mail.ru

Burlap To Cashmere - Anybody Out There - аккорды и текст, таба, видео

Печатать
Просмотров: 162
Авторы музыки: Steven Delopoulos

Anybody Out There
Burlap To Cashmere
Burlap to Cashmere-Anybody Out There

Standard tuning and no capo needed

Intro: Bm

Verse 1:
 Bm
Sometimes while I'm driving
 A                 Bm
Trying to find my song

Looking for the answers
     A           Bm
And where I do belong
 Bm
Finally the children are
 A                Bm
Bringin' me back home


Chorus:
  Bm      A       G
Ooooooh ooooooh ooooooh
             A        Bm
Is there anybody out there
        A     G    Em
Does anybody care
                         Bm
Are there people really there
          A        G
Ooooooh ooooooh oooooooh
             A     Bm
Is there anybody seeking
         A    G   Em
Does anybody see
                             Bm
Or are they deaf and dumb like me

(Speed up)

Verse 2:
 Bm
Sometimes while I'm driving
 A              Bm
Looking for my song

Looking for the answers
     A           Bm
And where I do belong
 Bm
Finally the children are
 A                Bm
Bringin' me back home


Chorus:
  Bm      A       G
Ooooooh ooooooh ooooooh
             A        Bm
Is there anybody out there
        A     G    Em
Does anybody care
                         Bm
Are there people really there
          A        G
Ooooooh ooooooh oooooooh
             A     Bm
Is there anybody seeking
         A    G   Em
Does anybody see
                             Bm
Or are they deaf and dumb like me


Verse 3:
 Bm
Sometimes while I'm driving
 A                 Bm
Still looking my song

Looking for the answers
     A           Bm
And where I do belong
 Bm
Finally Sweet Jesus is
 A                Bm
Bringin' me back home


Chorus:
  Bm      A       G
Ooooooh ooooooh ooooooh
             A        Bm
Is there anybody out there
        A     G    Em
Does anybody care
                         Bm
Are there people really there
          A        G
Ooooooh ooooooh oooooooh
             A     Bm
Is there anybody seeking
         A    G    Em
Does anybody see
                             Bm
Or are they deaf and dumb like me


Solo
-----------------------------------------------------------------------|
-----------------------------------------------------------------------|
-----------------------------------------------------------------------|
-----------------------------------------------------------------------|
---------------7--9-9-9-10-9v----7----7--9-9/10--9/10\8/9--------------|
--7--7--9--10----------------------10-----------------------9/10\8/9---|

-----------------------------------------------------------------------|
-----------------------------------------------------------------------|
-----------------------------------------------------------------------|
-----------------------------------------------------------------------|
---------------7--9-9-9-10-9v----7---------7---------------------------|
--7--7--9--10----------------------10-9-10---7-------------------------|

                                                            Bm
-----------------------------------------------------------------------|
-----------------------------------------------------------------------|
----------------9--11-11-11-12-11v-----9----9--11-11/12--11------------|
--9--9--11--12---------------------------12----------------------------|
-----------------------------------------------------------------------|
-----------------------------------------------------------------------|

              A        G
7-9-10-9-7----7-------------------------------------------------------7-|
-----------10---8-10-7-8---7-----------------------------7-8---7-8-10---|
-------------------------9---7-9-6-7---6-----6-7---6-7-9-----9----------|
-------------------------------------9---7-9-----9----------------------|
------------------------------------------------------------------------|
------------------------------------------------------------------------|

     A       Bm                                        A
-9---10---12---9---10---12---9---10--9-10-7-9----7---------------------|
----------------------------------------------10---7-10---7------------|
--------------------------------------------------------9---7-9--------|
-----------------------------------------------------------------------|
-----------------------------------------------------------------------|
-----------------------------------------------------------------------|

 G                  G/F#             Em
---------------------------------------------------7-------------------|
----------7--8--------7--8-8-10------7-7-8-8-8-10----------------------|
-6--7--9---------7--9-------------9------------------------------------|
-----------------------------------------------------------------------|
-----------------------------------------------------------------------|
-----------------------------------------------------------------------|
                                       Bm
------------7--9---9b10--9--7------7---9--10p9p8p7---------------------|
--8--10-10---------------------10--------------------------------------|
-----------------------------------------------------------------------|
-----------------------------------------------------------------------|
-----------------------------------------------------------------------|
-----------------------------------------------------------------------|


Chorus 2:
 Bm      A       G
Ooooooh ooooooh ooooooh
             A        Bm
Is there anybody out there
        A     G     Em
Does anybody care
                         Bm
Are there people really there
          A        G
Ooooooh ooooooh oooooooh
             A     Bm
Is there anybody seeking
         A    G   Em
Does anybody see
                    Bm
That he died upon a tree
Добавлено: 05.10.2013
Другие материалы по этой песне:

Страница создана 25.04.2012
http://primanota.ru/burlap-to-cashmere/anybody-out-there--chords.htm
Привет, Гость.
Предлагаем пройти революционный курс по гитаре.
Подарок от PrimaNota.Ru, забирай!