PrimaNota.ru - самый крупный в мире бесплатный архив песенных текстов, аккордов, табулатур и нот


Burirup - Himitsu Keisatsu - таба, видео

Регистрация Запомнить меня
Войти через:  Facebook Google Twitter Vk Yandex Mail.ru

Burirup - Himitsu Keisatsu - таба, видео

Печатать
Просмотров: 51
https://www.youtube.com/watch?v=_JP9NoiY4Eo
Hi, YukiGibson here,  guys here is a tab for SECRET POLICE by Hatsune Miku, 

The intro and verse are in Amajor or F#minor.

b = bending
~ = vibrato
t = tremolo; between those 2 notes very quickly (gotta go fast)
T = normal tremolo (still gotta go fast)

The intro
--14----17-16--14-----------------------|
-----14-----------17-14-17-14-17-17b19--|
----------------------------------------|
----------------------------------------|
----------------------------------------|
----------------------------------------|

-14----17-16--14------------------------|
----14------------17-14-17-17b19~~~-----|
----------------------------------------|
----------------------------------------|
----------------------------------------|
----------------------------------------|

Verse

F#m - E

Chorus - B major

C#m - B

End of chorus

C#m - B/D# - E - G

or

---------------|
---------------|
-6--8--9--12-12|
---------------|
-4--6--7--10-10|
---------------| x4


Solo:
The first part is in C# as far as I know, the second part is in F# or D#m / Ebm

First Part

---------------------------------------16b18-16T--13t16-------|
-16b18-18T-18~~--16-14-16-14-------------------------16b18~~~~|
------------------------------15-13-15~-----------------------|
--------------------------------------------------------------|
--------------------------------------------------------------|
--------------------------------------------------------------|

------------------------------------------------------------------------|
-18-16-14-18-16-14--14-13---------------13-14-16--18-16-14-18-16-14-18~~|
--------------------------15-13-15-13-15--------------------------------|
------------------------------------------------------------------------|
------------------------------------------------------------------------|
------------------------------------------------------------------------|

-21-21-21-21-20-20-20-20-18-18-18-18-------------------------------|
------------------------------------21-19-18-----------------------|
--------------------------------------------20-18-17-18-20-18-17---|
----------------------------------------------------------------18~|
-------------------------------------------------------------------|
-------------------------------------------------------------------|

Second part

----------------------------------------------------------------------------11-----11-----11-----11-14-11-----|
-------------------------------------------------11-12-14-11-12-14-11-14b16~~14b16--14b16--14b16--------14b16~|
--------------------------------8-10-11--10-11-13-------------------------------------------------------------|
-------------------8-9-11-8-9-11------------------------------------------------------------------------------|
------8-9-11-8-9-11-------------------------------------------------------------------------------------------|
7-9-11--------------------------------------------------------------------------------------------------------|


-14-13-11-14-13-11----------------------------------------------------------------18--18-21-18-21-21b23~~|
------------------14-12-11---------------11-12-14-12-11------------19--19-21-19-21--21-------------------|
--------------------------13-11-10-11-13----------------13-11----20--20----------------------------------|
---------------------------------------------------------------------------------------------------------|
---------------------------------------------------------------------------------------------------------|
---------------------------------------------------------------------------------------------------------|


Thanks for watching my videos, take care!!
Добавлено: 16.06.2016
Другие материалы по этой песне:
  • Аккорды и текст

Страница создана 16.06.2016
http://primanota.ru/burirup/himitsu-keisatsu-chords.htm
Привет, Гость.
Предлагаем пройти революционный курс по гитаре.
Подарок от PrimaNota.Ru, забирай!