PrimaNota.ru - самый крупный в мире бесплатный архив песенных текстов, аккордов, табулатур и нот


Buried In Verona - The End - таба, видео

Регистрация Запомнить меня
Войти через:  Facebook Google Twitter Vk Yandex Mail.ru

Buried In Verona - The End - таба, видео

Печатать
Просмотров: 89
BURIED IN VERONA

THE END

A#-F-A#-D#-G-C


TABBED BY andherembrace




---------------------------------------------------------------|
---------------------------------------------------------------|
---------------------------------------------------------------|
--------------------------------------------------------^------|
---^----------^----------^----------^----------^------13-10----|
-10-13-000--10-13-000--10-13-000--10-13-000--10-13-00-------00-|
       ***        ***        ***        ***        **       **

---------------------------------------------------------------|
---------------------------------------------------------------|
---------------------------------------------------------------|
--------------------------------------------------------^------|
---^----------^----------^----------^----------^------13-10----|
-10-13-0000-10-13-0000-10-13-0000-10-13-0000-10-13-00-------00-|
       ****       ****       ****       ****       **       **

---------------------------------------------------------------|
---------------------------------------------------------------|
---------------------------------------------------------------|
--------------------------------------------------------^------|
---^----------^----------^----------^----------^------13-10----|
-10-13-0000-10-13-0000-10-13-0000-10-13-0000-10-13-00-------00-|
       ****       ****       ****       ****       **       **



0:22


L
-------------------------------------------------------------------------|
-----------------------------------------------------------____----------|
----------------------------------------------------------/    \---^-----|
---------------------------------------------------------7-10-7-0-7-0--^-|
-0-------0-0-0-------------------------0-0-0--------7788--------------7-8|
-0-0000--0-0-0-0000--00-0-00-0--000000-0-0-0--771010---------------------|
   ****  * *   ****  **   **    ****** * * *  ** * *****

R
--------------------------------------------------------------------------|
-------------------------------------------------------------__-----------|
------------------------------------------------------------/  \---^------|
---------------------------------------------------------1014100-10-0--^--|
0------0-0-0-----------------------0-0-0---------10101212------------10-12|
0-0000-0-0-0-0000-00-0-00-0-000000-0-0-0-10101414-------------------------|
  **** * *   **** **   **   ****** * * *  * * * * * * * *


L
-------------------------------------------------------------------------|
-----------------------------------------------------------____----------|
----------------------------------------------------------/    \---^-----|
---------------------------------------------------------7-10-7-0-7-0--^-|
-0-------0-0-0-------------------------0-0-0--------7788--------------7-8|
-0-0000--0-0-0-0000--00-0-00-0--000000-0-0-0--771010---------------------|
   ****  * *   ****  **   **    ****** * * *  ** * *****

R
--------------------------------------------------------------------------|
-------------------------------------------------------------__-----------|
------------------------------------------------------------/  \---^------|
---------------------------------------------------------1014100-10-0--^--|
0------0-0-0-----------------------0-0-0---------10101212------------10-12|
0-0000-0-0-0-0000-00-0-00-0-000000-0-0-0-10101414-------------------------|
  **** * *   **** **   **   ****** * * *  * * * * * * * *



L
-------------------------------------------------------------------------|
-----------------------------------------------------------____----------|
----------------------------------------------------------/    \---^-----|
---------------------------------------------------------7-10-7-0-7-0--^-|
-0-0000--0-0-0-0000--00-0-00-0--000000-0-0-0--------7788--------------7-8|
-0-0000--0-0-0-0000--00-0-00-0--000000-0-0-0--771010---------------------|
   ****  * *   ****  **   **    ****** * * *  ** * *****

R
--------------------------------------------------------------------------|
------------------------------------------------------------__------------|
-----------------------------------------------------------/  \----^------|
---------------------------------------------------------1014100-10-0--^--|
0-0000-0-0-0-0000-00-0-00-0-000000-0-0-0---------10101212------------10-12|
0-0000-0-0-0-0000-00-0-00-0-000000-0-0-0-10101414-------------------------|
  **** * *   **** **   **   ****** * * *  * * * * * * * *



L
-------------------------------------------------------------------------|
-----------------------------------------------------------____----------|
----------------------------------------------------------/    \---^-----|
---------------------------------------------------------7-10-7-0-7-0--^-|
-0-0000--0-0-0-0000--00-0-00-0--000000-0-0-0--------7788--------------7-8|
-0-0000--0-0-0-0000--00-0-00-0--000000-0-0-0--771010---------------------|
   ****  * * * ****  ** * ** *  ****** * * *  ** * *****

R
--------------------------------------------------------------------------|
------------------------------------------------------------__------------|
-----------------------------------------------------------/  \----^------|
---------------------------------------------------------1014100-10-0--^--|
0-0000-0-0-0-0000-00-0-00-0-000000-0-0-0---------10101212------------10-12|
0-0000-0-0-0-0000-00-0-00-0-000000-0-0-0-10101414-------------------------|
  **** * * * **** ** * ** * ****** * * *  * * * * * * * *




----------------------------------------------|
----------------------------------------------|
----------------------------------------------|
----------------------------------------------|
-0---------------------------------------\----|
-0---------------------------------------\----|




0:51

B
-----------------------------------------------------------------|
-----------------------------------------------------------------|
-----------------------------------------------------------------|
-------------------------------------------7---------------------|
-5---7---8---5---7-------------------5-7-8---8-7-5---------------|
---0---0---0---0---0-0-0-000-0-0-0-0---------------0-0-0-000-0-0-|
   *   *   *   *   * * * *** * * * *               * * * *** * *


-----------------------------------------------------------------------|
-----------------------------------------------------------------------|
---_-------------------------------------------------------------------|
--/ \-------------7------------------8--12--8---------12-8-----10-7----|
-5-8-5--------0-8---8-7---------------10--10-10-12-10-----10-8-----8-7-|
--------0-8-0------------0-0-0-0-000-----------------------------------|
        *   *            *   * * ***   *   *  *     *


L
-----------------------------------------------------------------|
-----------------------------------------------------------------|
-----------------------------------------------------------------|
-------------------------------------------7---------------------|
-5---7---8---5---7-------------------5-7-8---8-7-5---------------|
---0---0---0---0---0-0-0-000-0-0-0-0---------------0-0-0-000-0-0-|
   *   *   *   *   * * * *** * * * *               * * * *** * *
R
--------------------------------------------------------------------|
--------------------------------------------------------------------|
--------------------------------------------------------------------|
--------------------------------------------10----------------------|
-8---10--12--8--10-------------------8-10-12--12-10-8---------------|
---0---0---0--0----0-0-0-000-0-0-0-0------------------0-0-0-000-0-0-|
   *   *   *  *    * * * *** * * * *                  * * * *** * *


L
-----------------------------------------------------------------------|
-----------------------------------------------------------------------|
---_-------------------------------------------------------------------|
--/ \-------------7------------------8--12--8---------12-8-----10-7----|
-5-8-5--------0-8---8-7---------------10--10-10-12-10-----10-8-----8-7-|
--------0-8-0------------0-0-0-0-000-----------------------------------|
        *   *            *   * * ***   *   *  *     *

R
--------------------------------------------------------------------------|
--------------------------------------------------------------------------|
--------------------------------------------------------------------------|
--/\-------------10-----------------12--15--12--------15-12-----14-10-----|
-8128-------0-12----12-10-------------13--13--13-15-13-----13-12-----12-10|
------0-12-0-------------0-0-0-0-000--------------------------------------|
      *    *             * * * * ***   *   *   *     *




1:10

B
-----------------------------------------------------------------|
-----------------------------------------------------------------|
-----------------------------------------------------------------|
-----------------------------------------------------------------|
-8---8---8---8---8---8---8---8---7---7---7---7---5---5---4---4---|
---0---0---0---0---0---0---0---0---0---0---0---0---0---0---0---0-|
   *   *   *   *   *   *   *   *   *   *   *   *   *   *   *   *


-------------------------------------------------------------------|
-------------------------------------------------------------------|
-------------------------------------------------------------------|
-------------------------------------------------------------------|
-8---8---8---8---8---8---8---8---7-5---5-----------5-8/12-8--------|
---0---0---0---0---0---0---0---0-----8---8-7-5-7-8----------12-8-12|
   *   *   *   *   *   *   *   * 

---------------------------------------------------------------------|
---------------------------------------------------__----------------|
--------------------------------------------------/  \---------------|
-------------------------------------------------8-12-8\7----7-----7-|
-8---8---8---8---8---8---8---8---7---7---7---7------------10---8-7---|
---0---0---0---0---0---0---0---0---0---0---0---0---------------------|
   *   *   *   *   *   *   *   *   *   *   *   *   

-------------------------------------------------------------------|
-------------------------------------------------------------------|
-------------------------------------------------------------------|
-------------------------------------------------------------------|
-8---8---8---8---8---8---8---8---7-5---5-----------5-8/12-8--------|
---0---0---0---0---0---0---0---0-----8---8-7-5-7-8----------12-8-12|
   *   *   *   *   *   *   *   * 



1:28


L
-----------------------------------------------------------------|
-----------------------------------------------------------------|
-----------------------------------------------------------------|
-----------------------------------------------------------------|
-8---8---8---8---8---8---8---8---7---7---7---7---5---5---4---4---|
---0---0---0---0---0---0---0---0---0---0---0---0---0---0---0---0-|
   *   *   *   *   *   *   *   *   *   *   *   *   *   *   *   *
R
-----------------------------------------------------------------|
-----------------------------------------------------------------|
-----------------------------------------------------------------|
-----------------------------------------------------------------|
-12--12--12--12--12--12--12--12--10--10--10--10--8---8---7---7---|
---0---0---0---0---0---0---0---0---0---0---0---0---0---0---0---0-|
   *   *   *   *   *   *   *   *   *   *   *   *   *   *   *   *



L
-------------------------------------------------------------------|
-------------------------------------------------------------------|
-------------------------------------------------------------------|
-------------------------------------------------------------------|
-8---8---8---8---8---8---8---8---7-5---5-----------5-8/12-8--------|
---0---0---0---0---0---0---0---0-----8---8-7-5-7-8----------12-8-12|
   *   *   *   *   *   *   *   * 
R
-----------------------------------------------------------------------|
-----------------------------------------------------------------------|
-----------------------------------------------------------------------|
-----------------------------------------------------------------------|
-12--12--12--12--12--12--12--12--10-8--8-------------8-12/15-12--------|
---0---0---0---0---0---0---0---0-----12-12-10-8-10-12----------15-12-15|
   *   *   *   *   *   *   *   *   

L
---------------------------------------------------------------------|
---------------------------------------------------__----------------|
--------------------------------------------------/  \---------------|
-------------------------------------------------8-12-8\7----7-----7-|
-8---8---8---8---8---8---8---8---7---7---7---7------------10---8-7---|
---0---0---0---0---0---0---0---0---0---0---0---0---------------------|
   *   *   *   *   *   *   *   *   *   *   *   *   
R
---------------------------------------------------------------------|
---------------------------------------------------------------------|
---------------------------------------------------/\----------------|
-------------------------------------------------121512\10--10-----10|
-12--12--12--12--12--12--12--12--10--10--10--10-----------13--12-10--|
---0---0---0---0---0---0---0---0---0---0---0---0---------------------|
   *   *   *   *   *   *   *   *   *   *   *   *   

L
-------------------------------------------------------------------|
-------------------------------------------------------------------|
-------------------------------------------------------------------|
-------------------------------------------------------------------|
-8---8---8---8---8---8---8---8---7-5---5-----------5-8/12-8--------|
---0---0---0---0---0---0---0---0-----8---8-7-5-7-8----------12-8-12|
   *   *   *   *   *   *   *   * 
R
-----------------------------------------------------------------------|
-----------------------------------------------------------------------|
-----------------------------------------------------------------------|
-----------------------------------------------------------------------|
-12--12--12--12--12--12--12--12--10-8--8-------------8-12/15-12--------|
---0---0---0---0---0---0---0---0-----12-12-10-8-10-12----------15-12-15|
   *   *   *   *   *   *   *   *   




1:46


-----------------------------------------------|
-----------------------------------------------|
-----------------------------------------------|
-8-------------8-------------8-----8-------8---|
-8-------88888-8-------88888-8-----8-88888-8---|
-8-------88888-8-------88888-8-----8-88888-8---|
         *****         *****         *****


-----------------------------------------------------|
-----------------------------------------------------|
-----------------------------------------------------|
-0-------------0-------------0-------------7---------|
-0-------00000-0-------00000-0---------5-8---8-5-8---|
-0-------00000-0-------00000-0-----0-7---------------|
         *****         *****
 

-----------------------------------------------|
-----------------------------------------------|
-----------------------------------------------|
-8-------------8-------------8-----8-------8---|
-8-------88888-8-------88888-8-----8-88888-8---|
-8-------88888-8-------88888-8-----8-88888-8---|
         *****         *****         *****


------------------------------------------------------|
------------------------------------------------------|
-----------------------------------------^------------|
-0-------------0--------------7---------787-5-7-----7-|
-0-------00000-0----------5-8---8-5-8-----------8-5---|
-0-------00000-0-------0-7------------8---------------|
         *****        




2:04

B
-----------------------------------------------------------------|
-----------------------------------------------------------------|
-----------------------------------------------------------------|
-------------------------------------------7---------------------|
-5---7---8---5---7-------------------5-7-8---8-7-5---------------|
---0---0---0---0---0-0-0-000-0-0-0-0---------------0-0-0-000-0-0-|
   *   *   *   *   * * * *** * * * *               * * * *** * *


-----------------------------------------------------------------------|
-----------------------------------------------------------------------|
---_-------------------------------------------------------------------|
--/ \-------------7------------------8--12--8---------12-8-----10-7----|
-5-8-5--------0-8---8-7---------------10--10-10-12-10-----10-8-----8-7-|
--------0-8-0------------0-0-0-0-000-----------------------------------|
        *   *            *   * * ***   *   *  *     *



2:14

L
-----------------------------------------------------------------|
-----------------------------------------------------------------|
-----------------------------------------------------------------|
-------------------------------------------7---------------------|
-5---7---8---5---7-------------------5-7-8---8-7-5---------------|
---0---0---0---0---0-0-0-000-0-0-0-0---------------0-0-0-000-0-0-|
   *   *   *   *   * * * *** * * * *               * * * *** * *
R
--------------------------------------------------------------------|
--------------------------------------------------------------------|
--------------------------------------------------------------------|
--------------------------------------------10----------------------|
-8---10--12--8--10-------------------8-10-12--12-10-8---------------|
---0---0---0--0----0-0-0-000-0-0-0-0------------------0-0-0-000-0-0-|
   *   *   *  *    * * * *** * * * *                  * * * *** * *


L
-----------------------------------------------------------------------|
-----------------------------------------------------------------------|
---_-------------------------------------------------------------------|
--/ \-------------7------------------8--12--8---------12-8-----10-7----|
-5-8-5--------0-8---8-7---------------10--10-10-12-10-----10-8-----8-7-|
--------0-8-0------------0-0-0-0-000-----------------------------------|
        *   *            *   * * ***   *   *  *     *

R
--------------------------------------------------------------------------|
--------------------------------------------------------------------------|
--------------------------------------------------------------------------|
--/\-------------10-----------------12--15--12--------15-12-----14-10-----|
-8128-------0-12----12-10-------------13--13--13-15-13-----13-12-----12-10|
------0-12-0-------------0-0-0-0-000--------------------------------------|
      *    *             * * * * ***   *   *   *     *



2:23


L
---------------------------------|
---------------------------------|
---------------------------------|
---------------------------------|
-0-------0-0-0----------1----3---|
-0-0000--0-0-0-0000--00-1-00-3---|
   ****  * *   ****  **   **

R
---------------------------------|
---------------------------------|
---------------------------------|
---------------------------------|
-0----------------------1----3---|
-0-0000--------------00-1-00-3---|
   ****              **   **




L
---------------------------------------------------------------------|
-----------------------------------------------------------____------|
----------------------------------------------------------/    \-----|
---------------------------------------------------------7-10-7-0-7--|
-0-------0-0-0-------------------------0-0-0--------7788-------------|
-0-0000--0-0-0-0000--00-0-00-0--000000-0-0-0--771010-----------------|
   ****  * *   ****  **   **    ****** * * *  ** * *****

R
------------------------------------------------------------------------|
---------------------------------------------------------------__-------|
--------------------------------------------------------------/  \------|
------------------------------------------------------------1014100-10--|
0---------------------------------------------------10101212------------|
0-------------------------------------------10101414--------------------|
                                             * * * * * * * *


2:32

L
-------------------------------------------------------------------------|
-----------------------------------------------------------____----------|
----------------------------------------------------------/    \---^-----|
---------------------------------------------------------7-10-7-0-7-0--^-|
-0-------0-0-0-------------------------0-0-0--------7788--------------7-8|
-0-0000--0-0-0-0000--00-0-00-0--000000-0-0-0--771010---------------------|
   ****  * *   ****  **   **    ****** * * *  ** * *****

R
--------------------------------------------------------------------------|
-------------------------------------------------------------__-----------|
------------------------------------------------------------/  \---^------|
---------------------------------------------------------1014100-10-0--^--|
0------0-0-0-----------------------0-0-0---------10101212------------10-12|
0-0000-0-0-0-0000-00-0-00-0-000000-0-0-0-10101414-------------------------|
  **** * *   **** **   **   ****** * * *  * * * * * * * *


L
-------------------------------------------------------------------------|
-----------------------------------------------------------____----------|
----------------------------------------------------------/    \---^-----|
---------------------------------------------------------7-10-7-0-7-0--^-|
-0-------0-0-0-------------------------0-0-0--------7788--------------7-8|
-0-0000--0-0-0-0000--00-0-00-0--000000-0-0-0--771010---------------------|
   ****  * *   ****  **   **    ****** * * *  ** * *****

R
--------------------------------------------------------------------------|
-------------------------------------------------------------__-----------|
------------------------------------------------------------/  \---^------|
---------------------------------------------------------1014100-10-0--^--|
0------0-0-0-----------------------0-0-0---------10101212------------10-12|
0-0000-0-0-0-0000-00-0-00-0-000000-0-0-0-10101414-------------------------|
  **** * *   **** **   **   ****** * * *  * * * * * * * *





L
-------------------------------------------------------------------------|
-----------------------------------------------------------____----------|
----------------------------------------------------------/    \---^-----|
---------------------------------------------------------7-10-7-0-7-0--^-|
-0-------0-0-0-------------------------0-0-0--------7788--------------7-8|
-0-0000--0-0-0-0000--00-0-00-0--000000-0-0-0--771010---------------------|
   ****  * * * ****  **   **    ****** * * *  ** * *****

R
--------------------------------------------------------------------------|
-------------------------------------------------------------__-----------|
------------------------------------------------------------/  \---^------|
---------------------------------------------------------1014100-10-0--^--|
0------0-0-0-----------------------0-0-0---------10101212------------10-12|
0-0000-0-0-0-0000-00-0-00-0-000000-0-0-0-10101414-------------------------|
  **** * *   **** **   **   ****** * * *  * * * * * * * *

L
-------------------------------------------------------------------------|
-----------------------------------------------------------____----------|
----------------------------------------------------------/    \---^-----|
---------------------------------------------------------7-10-7-0-7-0--^-|
-0-------0-0-0-------------------------0-0-0--------7788--------------7-8|
-0-0000--0-0-0-0000--00-0-00-0--000000-0-0-0--771010---------------------|
   ****  * *   ****  **   **    ****** * * *  ** * *****

R
--------------------------------------------------------------------------|
-------------------------------------------------------------__-----------|
------------------------------------------------------------/  \---^------|
---------------------------------------------------------1014100-10-0--^--|
0------0-0-0-----------------------0-0-0---------10101212------------10-12|
0-0000-0-0-0-0000-00-0-00-0-000000-0-0-0-10101414-------------------------|
  **** * *   **** **   **   ****** * * *  * * * * * * * *



2:57

------------------------------------------------------|
------------------------------------------------------|
------------------------------------------------------|
------------------------------------------------------|
-0------------------------------------\---------------|
-0------------------------------------\---------------|

-----------------------------------------------|
-----------------------------------------------|
-----------------------------------------------|
-8-------------8-------------8-----8-------8---|
-8-------88888-8-------88888-8-----8-88888-8---|
-8-------88888-8-------88888-8-----8-88888-8---|
         *****         *****         *****


-----------------------------------------------------|
-----------------------------------------------------|
-----------------------------------------------------|
-0-------------0-------------0-------------7---------|
-0-------00000-0-------00000-0---------5-8---8-5-8---|
-0-------00000-0-------00000-0-----0-7---------------|
         *****         *****
 

-----------------------------------------------|
-----------------------------------------------|
-----------------------------------------------|
-8-------------8-------------8-----8-------8---|
-8-------88888-8-------88888-8-----8-88888-8---|
-8-------88888-8-------88888-8-----8-88888-8---|
         *****         *****         *****


------------------------------------------------------|
------------------------------------------------------|
-----------------------------------------^------------|
-0-------------0--------------7---------787-5-7-----7-|
-0-------00000-0----------5-8---8-5-8-----------8-5---|
-0-------00000-0-------0-7------------8---------------|
         *****        



3:20


L
-----------------------------------------------------------------------|
-----------------------------------------------------------------------|
-7-----7-----7-10-7-----7-----10/12-7-----7-----7-10-7-----7-----10/12-|
---8-8---8-8--------8-8---8-8---------8-8---8-8--------8-8---8-8-------|
-----------------------------------------------------------------------|
-----------------------------------------------------------------------|
  * *    * *        * *   * *         * *   * *        * *   * *
R
-------------------------------------------------------------------|
---------------^-----------------------------^---------------------|
-10----10----10-14-10----10----14/15-10----10-14-10----10----14/15-|
---1212--1212--------1212--1212--------1212--------1212--1212------|
-------------------------------------------------------------------|
-------------------------------------------------------------------|
    * *   * *         * *   * *         * *         * *   * *

L
-------------------------------------------------------------------|
---------------^-----------------------------^---------------------|
-10----10----10-14-10----10----14/15-10----10-14-10----10----14/15-|
---1212--1212--------1212--1212--------1212--------1212--1212------|
-------------------------------------------------------------------|
-------------------------------------------------------------------|
    * *   * *         * *   * *         * *         * *   * *
R
------------------------------------------------------------------------|
---------------^-----------------------------------^--------------------|
-14----14----14-17-14----14----17/19-14----14----14-17-14----14----17/19|
---1515--1515--------1515--1515--------1515--1515--------1515--1515-----|
------------------------------------------------------------------------|
------------------------------------------------------------------------|
    * *   * *         * *   * *         * *   * *         * *   * *






L
-----------------------------------------------------------------------|
-----------------------------------------------------------------------|
-7-----7-----7-10-7-----7-----10/12-7-----7-----7-10-7-----7-----10/12-|
---8-8---8-8--------8-8---8-8---------8-8---8-8--------8-8---8-8-------|
-----------------------------------------------------------------------|
-----------------------------------------------------------------------|
  * *    * *        * *   * *         * *   * *        * *   * *
R
-------------------------------------------------------------------|
---------------^-----------------------------^---------------------|
-10----10----10-14-10----10----14/15-10----10-14-10----10----14/15-|
---1212--1212--------1212--1212--------1212--------1212--1212------|
-------------------------------------------------------------------|
-------------------------------------------------------------------|
    * *   * *         * *   * *         * *         * *   * *

L
-------------------------------------------------------------------|
---------------^-----------------------------^---------------------|
-10----10----10-14-10----10----14/15-10----10-14-10----10----14/15-|
---1212--1212--------1212--1212--------1212--------1212--1212------|
-------------------------------------------------------------------|
-------------------------------------------------------------------|
    * *   * *         * *   * *         * *         * *   * *
R
------------------------------------------------------------------------|
---------------^-----------------------------------^--------------------|
-14----14----14-17-14----14----17/19-14----14----14-17-14----14----17/19|
---1515--1515--------1515--1515--------1515--1515--------1515--1515-----|
------------------------------------------------------------------------|
------------------------------------------------------------------------|
    * *   * *         * *   * *         * *   * *         * *   * *






L
-----------------------------------------------------------------------|
-----------------------------------------------------------------------|
-7-----7-----7-10-7-----7-----10/12-7-----7-----7-10-7-----7-----10/12-|
---8-8---8-8--------8-8---8-8---------8-8---8-8--------8-8---8-8-------|
-----------------------------------------------------------------------|
-----------------------------------------------------------------------|
  * *    * *        * *   * *         * *   * *        * *   * *
R
-------------------------------------------------------------------|
---------------^-----------------------------^---------------------|
-10----10----10-14-10----10----14/15-10----10-14-10----10----14/15-|
---1212--1212--------1212--1212--------1212--------1212--1212------|
-------------------------------------------------------------------|
-------------------------------------------------------------------|
    * *   * *         * *   * *         * *         * *   * *

L
-------------------------------------------------------------------|
---------------^-----------------------------^---------------------|
-10----10----10-14-10----10----14/15-10----10-14-10----10----14/15-|
---1212--1212--------1212--1212--------1212--------1212--1212------|
-------------------------------------------------------------------|
-------------------------------------------------------------------|
    * *   * *         * *   * *         * *         * *   * *
R
------------------------------------------------------------------------|
---------------^-----------------------------------^--------------------|
-14----14----14-17-14----14----17/19-14----14----14-17-14----14----17/19|
---1515--1515--------1515--1515--------1515--1515--------1515--1515-----|
------------------------------------------------------------------------|
------------------------------------------------------------------------|
    * *   * *         * *   * *         * *   * *         * *   * *






L
-----------------------------------------------------------------------|
-----------------------------------------------------------------------|
-7-----7-----7-10-7-----7-----10/12-7-----7-----7-10-7-----7-----10/12-|
---8-8---8-8--------8-8---8-8---------8-8---8-8--------8-8---8-8-------|
-----------------------------------------------------------------------|
-----------------------------------------------------------------------|
  * *    * *        * *   * *         * *   * *        * *   * *
R
-------------------------------------------------------------------|
---------------^-----------------------------^---------------------|
-10----10----10-14-10----10----14/15-10----10-14-10----10----14/15-|
---1212--1212--------1212--1212--------1212--------1212--1212------|
-------------------------------------------------------------------|
-------------------------------------------------------------------|
    * *   * *         * *   * *         * *         * *   * *

L
-------------------------------------------------------------------|
---------------^-----------------------------^---------------------|
-10----10----10-14-10----10----14/15-10----10-14-10----10----14/15-|
---1212--1212--------1212--1212--------1212--------1212--1212------|
-------------------------------------------------------------------|
-------------------------------------------------------------------|
    * *   * *         * *   * *         * *         * *   * *
R
------------------------------------------------------------------------|
---------------^-----------------------------------^--------------------|
-14----14----14-17-14----14----17/19-14----14----14-17-14----14----17/19|
---1515--1515--------1515--1515--------1515--1515--------1515--1515-----|
------------------------------------------------------------------------|
------------------------------------------------------------------------|
    * *   * *         * *   * *         * *   * *         * *   * *







L
-----------------------------------------------------------------------|
-----------------------------------------------------------------------|
-7-----7-----7-10-7-----7-----10/12-7-----7-----7-10-7-----7-----10/12-|
---8-8---8-8--------8-8---8-8---------8-8---8-8--------8-8---8-8-------|
-----------------------------------------------------------------------|
-----------------------------------------------------------------------|
  * *    * *        * *   * *         * *   * *        * *   * *
R
-------------------------------------------------------------------|
---------------^-----------------------------^---------------------|
-10----10----10-14-10----10----14/15-10----10-14-10----10----14/15-|
---1212--1212--------1212--1212--------1212--------1212--1212------|
-------------------------------------------------------------------|
-------------------------------------------------------------------|
    * *   * *         * *   * *         * *         * *   * *

L
-------------------------------------------------------------------|
---------------^-----------------------------^---------------------|
-10----10----10-14-10----10----14/15-10----10-14-10----10----14/15-|
---1212--1212--------1212--1212--------1212--------1212--1212------|
-------------------------------------------------------------------|
-------------------------------------------------------------------|
    * *   * *         * *   * *         * *         * *   * *
R
------------------------------------------------------------------------|
---------------^-----------------------------------^--------------------|
-14----14----14-17-14----14----17/19-14----14----14-17-14----14----17/19|
---1515--1515--------1515--1515--------1515--1515--------1515--1515-----|
------------------------------------------------------------------------|
------------------------------------------------------------------------|
    * *   * *         * *   * *         * *   * *         * *   * *






L
-----------------------------------------------------------------------|
-----------------------------------------------------------------------|
-7-----7-----7-10-7-----7-----10/12-7-----7-----7-10-7-----7-----10/12-|
---8-8---8-8--------8-8---8-8---------8-8---8-8--------8-8---8-8-------|
-----------------------------------------------------------------------|
-----------------------------------------------------------------------|
  * *    * *        * *   * *         * *   * *        * *   * *
R
-------------------------------------------------------------------|
---------------^-----------------------------^---------------------|
-10----10----10-14-10----10----14/15-10----10-14-10----10----14/15-|
---1212--1212--------1212--1212--------1212--------1212--1212------|
-------------------------------------------------------------------|
-------------------------------------------------------------------|
    * *   * *         * *   * *         * *         * *   * *

L
-------------------------------------------------------------------|
---------------^-----------------------------^---------------------|
-10----10----10-14-10----10----14/15-10----10-14-10----10----14/15-|
---1212--1212--------1212--1212--------1212--------1212--1212------|
-------------------------------------------------------------------|
-------------------------------------------------------------------|
    * *   * *         * *   * *         * *         * *   * *
R
------------------------------------------------------------------------|
---------------^-----------------------------------^--------------------|
-14----14----14-17-14----14----17/19-14----14----14-17-14----14----17/19|
---1515--1515--------1515--1515--------1515--1515--------1515--1515-----|
------------------------------------------------------------------------|
------------------------------------------------------------------------|
    * *   * *         * *   * *         * *   * *         * *   * *
Добавлено: 10.07.2013
Другие материалы по этой песне:
  • Аккорды и текст

Страница создана 10.07.2013
http://primanota.ru/buried-in-verona/the-end-chords.htm
Привет, Гость.
Предлагаем пройти революционный курс по гитаре.
Подарок от PrimaNota.Ru, забирай!