PrimaNota.ru - самый крупный в мире бесплатный архив песенных текстов, аккордов, табулатур и нот


Buried By Design - Nothing More - таба, видео

Регистрация Запомнить меня
Войти через:  Facebook Google Twitter Vk Yandex Mail.ru

Buried By Design - Nothing More - таба, видео

Печатать
Просмотров: 78
Hi everyone ! It's my very first tab and it's also the very first tab for that awesome
kick-ass band ! They're really awesome and you have to follow them on
twitter/Facebook/Youtube. These guys have to be known and encouraged ! The song is in 
Drop Db tuning . A very nice and pretty easy song to play !

Intro, clean guitar1:

Eb---------------------------------|
Bb---------------------------------|
Gb---2---2--2---2---5---5--5---5---| X2
Db---------------------------------|
Ab---------------------------------|
Db-0---0------0---0---0------0---0-|

Eb---------0---1---0-1---------------------------|
Bb-----1-----1---1-----------1-----1-----1-----1-|
Gb-------------------------0-----0-----0-----0---|
Db-----------------------------------------------|
Ab-1-1---1-------------1/3-----3-----3-----3-----|
Db-----------------------------------------------|

Verse, guitar1, clean:

Eb---------------------------------|
Bb---------------------------------|
Gb---2---2--2---2---5---5--5---5---| X2
Db---------------------------------|
Ab---------------------------------|
Db-0---0------0---0---0------0---0-|

Eb---------0---1---0-1---------------------------|
Bb-----1-----1---1-----------3-----3-----3-----3-|
Gb-------------------------0-----0-----0-----0---|
Db-----------------------------------------------|
Ab-1-1---1-------------1/3-----3-----3-----3-----|
Db-----------------------------------------------|

Verse, guitar 2, distorded:

Eb------------------------------------------------------------|
Bb------------------------------------------------------------|
Gb-5-(15 times)-5/2-2(15 times)-2-----------------------------|
Db--------------------------------3(15 times)-3/2-2(15 times)-|
Ab------------------------------------------------------------|
Db------------------------------------------------------------|
   .                .             .               .
(half muted)

Pre-chorus, guitar 1, clean:

Eb---------------------------------|
Bb---------------------------------|
Gb---2---2--2---2---5---5--5---5---| X2
Db---------------------------------|
Ab---------------------------------|
Db-0---0------0---0---0------0---0-|

Eb---------0---1---0-1---------------------------|
Bb-----1-----1---1-----------3-----3-----3-----3-|
Gb-------------------------0-----0-----0-----0---|
Db-----------------------------------------------|
Ab-1-1---1-------------1/3-----3-----3-----3-----|
Db-----------------------------------------------|

Pre-chorus, guitar 2, distorded:

Eb------------------------------------------------------------|
Bb------------------------------------------------------------|
Gb-5-(15 times)-5/2-2(15 times)-2-------------555555555-------|
Db--------------------------------3(15 times)-555555555-------|
Ab--------------------------------------------333333333-------|
Db------------------------------------------------------------|
   .                .             .
(half muted)

Chorus, both guitars, distorded

Eb-----------------------------------------------------|
Bb-----------------------------------------------------|
Gb---------------------------------------3--3/5-5 -----|
Db-0-0-00-0-00-3p0-00-0-0-00-0-00-3p0-00-3--3/5-5-5--0-|
Ab-0-0-00-0-00-3p0-00-0-0-00-0-00-3p0-00-1--1/3-3-5--0-|
Db-0-0-00-0-00-3p0-00-0-0-00-0-00-3p0-00-------------0-|
       ..   ..     ..     ..   ..     ..

Post-chorus & verse 2, guitar 1, clean:

Eb---------------------------------|
Bb---------------------------------|
Gb---2---2--2---2---5---5--5---5---| X2
Db---------------------------------|
Ab---------------------------------|
Db-0---0------0---0---0------0---0-|

Eb---------0---1---0-1---------------------------|
Bb-----1-----1---1-----------3-----3-----3-----3-|
Gb-------------------------0-----0-----0-----0---|
Db-----------------------------------------------|
Ab-1-1---1-------------1/3-----3-----3-----3-----|
Db-----------------------------------------------|

Post-chorus & verse 2, guitar 2, distorded

Eb---------------------------------|
Bb---------------------------------|
Gb---------------------------------|
Db-3(let ring)-x-x-3/5-2(1/2 bend)-|
Ab---------------------------------|
Db---------------------------------|

directly after

Eb------------------------------------------------------------|
Bb------------------------------------------------------------|
Gb-5-(15 times)-5/2-2(15 times)-2-----------------------------| only once
Db--------------------------------3(15 times)-3/2-2(15 times)-|
Ab------------------------------------------------------------|
Db------------------------------------------------------------|
   .                .             .               .
(half muted)

Eb------------------------------------------|
Bb------------------------------------------|
Gb---------------------333-333-3-55555555-5-|
Db-000-000-0-000-000-0-333-333-3-55555555-5-|
Ab-000-000-0-000-000-0-111-111-1-33333333-3-|
Db-000-000-0-000-000-0----------------------|
   ... ...   ... ...   ... ...   ........

Chorus 2, both guitars, distorded:

Eb-------------------------------------------------------------|
Bb-------------------------------------------------------------|
Gb---------------------------------------3--3/5-5-5------------|
Db-0-0-00-0-00-3p0-00-0-0-00-0-00-3p0-00-3--3/5-5-5--5-3-0-2h3-|
Ab-0-0-00-0-00-3p0-00-0-0-00-0-00-3p0-00-1--1/3-3-3--5-3-0-2h3-|
Db-0-0-00-0-00-3p0-00-0-0-00-0-00-3p0-00-------------5-3-0-2h3-|
       ..   ..     ..     ..   ..     ..

Eb-------------------------------------------------------------|
Bb-------------------------------------------------------------|
Gb---------------------------------------3--3/5-5-5----5-------|
Db-0-0-00-0-00-3p0-00-0-0-00-0-00-3p0-00-3--3/5-5-5--0-5-5-3-0-|
Ab-0-0-00-0-00-3p0-00-0-0-00-0-00-3p0-00-1--1/3-3-3--0-3-5-3-0-|
Db-0-0-00-0-00-3p0-00-0-0-00-0-00-3p0-00-------------0---5-3-0-|
       ..   ..     ..     ..   ..     ..

Bridge, guitar 2, distorded:

eb|---------------------------------------------------------------|
Bb|---------------------------------6---5-----5---3---------------|
Gb|-------------3-3-3-3-3-3---------------------------3-3-3-3-3---|
Db|-0(16 times)-------------0-0-0-0---0---0-0---0---0-------------| X3
Ab|---------------------------------------------------------------|
Db|---------------------------------------------------------------|

Pre-chorus 3, guitar 1, clean (after the guitar 2 bridge)

eb------------------------------------|
Bb-5-555-5/6-6666-6\1-111-1(let ring)-|
Gb-5-555-5-5-5555-5\0-000-0-----------|
Db------------------------------------|
Ab------------------------------------|
Db------------------------------------|

Pre-chorus 3, guitar 2, distorded (after the guitar 1 pre-chorus)

eb------------------------------------|
Bb-----------6~(artificial harmonic)--|
Gb------------------------------------|
Db-5-3-0-2h3--------------------------|
Ab-5-3-0-2h3--------------------------|
Db-5-3-0-2h3--------------------------|

Chorus 3, both guitars:

Eb-------------------------------------------------------------|
Bb-------------------------------------------------------------|
Gb---------------------------------------3--3/5-5-5------------|
Db-0-0-00-0-00-3p0-00-0-0-00-0-00-3p0-00-3--3/5-5-5--5-3-0-2h3-|
Ab-0-0-00-0-00-3p0-00-0-0-00-0-00-3p0-00-1--1/3-3-3--5-3-0-2h3-|
Db-0-0-00-0-00-3p0-00-0-0-00-0-00-3p0-00-------------5-3-0-2h3-|
       ..   ..     ..     ..   ..     ..

Eb-------------------------------------------------------------|
Bb-------------------------------------------------------------|
Gb---------------------------------------3--3/5-5-5--3-3/5-----|
Db-0-0-00-0-00-3p0-00-0-0-00-0-00-3p0-00-3--3/5-5-5--3-3/5-----|
Ab-0-0-00-0-00-3p0-00-0-0-00-0-00-3p0-00-1--1/3-3-3--1-1/3-----|
Db-0-0-00-0-00-3p0-00-0-0-00-0-00-3p0-00-----------------------|
       ..   ..     ..     ..   ..     ..

Eb----------------------------------------------|
Bb----------------------------------------------|
Gb-----3------3------3--------------------------|
Db-0-0-3--0-0-3--0-0-3--3--3/5-5--5p3-0---------|
Ab-0-0-1--0-0-1--0-0-1--3--3/5-5--5p3-0---------|
Db-0-0----0-0----0-0----3--3/5-5--5p3-0---------|

Outro, guitar 1, clean:

Eb---------------------------------|
Bb---------------------------------|
Gb---2---2--2---2---5---5--5---5---| X2
Db---------------------------------|
Ab---------------------------------|
Db-0---0------0---0---0------0---0-|

Eb---------0---1---0-1---------------------------|
Bb-----1-----1---1-----------3-----3-----3-----3-|
Gb-------------------------0-----0-----0-----0---|
Db-----------------------------------------------|
Ab-1-1---1-------------1/3-----3-----3-----3-----|
Db-----------------------------------------------|

Buried by Design - Nothing More

Here you go ! The whole song but the bridge seems good for me :) I really don't know if
this tab is 100% correct, but I manage to play it with the real song in the same time,
so I hope you guys will enjoy it !

Remember to follow Buried by Design on Facebook, Twitter and youtube !
Keep on rockin' ! \m/

PS: Here's the link for their official website http://buriedbydesign.net/
Добавлено: 27.08.2013
Другие материалы по этой песне:
  • Аккорды и текст

Страница создана 27.08.2013
http://primanota.ru/buried-by-design/nothing-more-chords.htm
Привет, Гость.
Предлагаем пройти революционный курс по гитаре.
Подарок от PrimaNota.Ru, забирай!