PrimaNota.ru - самый крупный в мире бесплатный архив песенных текстов, аккордов, табулатур и нот


Burden Of A Day - White Coats And Their Medicine - таба, видео

Регистрация Запомнить меня
Войти через:  Facebook Google Twitter Vk Yandex Mail.ru

Burden Of A Day - White Coats And Their Medicine - таба, видео

Печатать
Просмотров: 94
-------------------------------------------------------------------------------
		White Coats and Their Medicine - Burden Of A Day
-------------------------------------------------------------------------------
Tabbed by: Thijs v/d Pol (deluge_nl)
Email: thijs_p@hotmail.com

Tuning: Drop C - CGCFAD

Wanted to learn this song but there wasn't a tab available so i gave it a try!
Hope you like it, feel free to comment and rate! 



Intro - Repeat as often as needed

e|---------13-13-12----------------------------------------------------------|
B|------------------13-13-13/15-13/15----------------------------------------|
G|--12h14------------------------------14------------------------------------|
D|---------------------------------------------------------------------------|
A|---------------------------------------------------------------------------|
E|---------------------------------------------------------------------------|


Verse 1 (x2) 
e|---------------------------------------------------------------------------|
B|---------------------------------------------------------------------------|
G|----9-9-9-9-----------12-12-12-12------------------------------------------|
D|--0-x-x-x-x---(x4)--8--x--x--x--x--(x4)------------------------------------|
A|--0-7-7-7-7---------8-10-10-10-10------------------------------------------|
E|--0-----------------8------------------------------------------------------|


Then slightly different, also 2 times		     2nd time end with
e|-------------------------------------------------|-------------------------|
B|-------------------------------------------------|-------------------------|
G|------9-9-9-9------------12-12-12-12-------------|-------------------------|
D|--000-x-x-x-x--(x4)--888--x--x--x--x--(x4)-------|-----0~------------------|
A|--000-7-7-7-7--------888-10-10-10-10-------------|-----0~----10p8p0-7h8p0--|
E|--000----------------888-------------------------|-----0~------------------|


Chorus x2 
e|-------------------------------------------------------------------------------|
B|-------------------------------------------------------------------------------|
G|------------------------------------------------------------/10-9--------------|
D|-00000----------888-8-8-888-8-8--5-5-55--55-5-55--88-8-88---------10-10h12-7---|
A|-00000-7h8p0-10-888-8-8-888-8-8--5-5-55--55-5-55--88-8-88----------------------|
E|-00000----------888-8-8-888-8-8--5-5-55--55-5-55--88-8-88----------------------|


Breakdown                           this part x2            then this part x2
e|---------------------------|-------------------------|--------------------------|
B|---------------------------|-------------------------|--------------------------|
G|---------------------------|-------------------------|--------------------------|
D|-000-000--000-000---1/8\6--|-00--0530--0--0-0--1/8\6-|-00--0530--0--5313--1/8\6-|
A|-000-000--000-000---1/8\6--|-00--0530--0--0-0--1/8\6-|-00--0530--0--5313--1/8\6-|
E|-000-000--000-000---1/8\6--|-00--0530--0--0-0--1/8\6-|-00--0530--0--5313--1/8\6-|
   ... ...  ... ...                ....                      ....     ....

Then play this once 
e|---------------------------------------------------------------------------------|
B|---------6-66----------6-66------------------------------------------------------|
G|---------9-99----------9-99------------------------------------------------------|
D|-0~-00~--------0~-00~--------0-00000000-0-0-00000000-0-8-88888888-8-8-88888888-8-|
A|-0~-00~--------0~-00~--------0-00000000-0-0-00000000-0-8-88888888-8-8-88888888-8-|
E|-0~-00~--------0~-00~--------0-00000000-0-0-00000000-0-8-88888888-8-8-88888888-8-|
      .             .            ........     ........     ........     ........

Bridge part 1 x3
e|---------------------------------------------------------------------------|
B|---------------------------------------------------------------------------|
G|--12-12121212-10-10101010--9-9999-10-10101010------------------------------|
D|---x--x-x-x-x--x--x-x-x-x--x-xxxx--x--x-x-x-x------------------------------|
A|--10-10101010--8--8-8-8-8--7-7777--8--8-8-8-8------------------------------|
E|---------------------------------------------------------------------------|

then part 2 x1
e|---------------------------------------------------------------------------|
B|---------------------------------------------------------------------------|
G|--15-15151515--14-14141414--17-17171717--15-15151515-----------------------|
D|---x--x-x-x-x---x--x-x-x-x---x--x-x-x-x---x--x-x-x-x-----------------------|
A|--13-13131313--12-12121212--15-15151515--13-13131313-----------------------|
E|---------------------------------------------------------------------------|

Repeat bridge part 1 (x3)

then part 3 x1 
e|---------------------------------------------------------------------------|
B|---------------------------------------------------------------------------|
G|--17-17171717--15-15151515--19-19191919--17-17171717-----------------------|
D|---x--x-x-x-x---x--x-x-x-x---x--x-x-x-x---x--x-x-x-x-----------------------|
A|--15-15151515--13-13131313--17-17171717--15-15151515-----------------------|
E|---------------------------------------------------------------------------|


Verse 1          do this x2                            end with 
e|-------------------------------------------|-----------------------------|
B|-------------------------------------------|-----------------------------|
G|----9-9-9-9-----------12-12-12-12----------|-----------------------------|
D|--0-x-x-x-x---(x4)--8--x--x--x--x--(x4)----|--0-0--0---8\1---------------|
A|--0-7-7-7-7---------8-10-10-10-10----------|--0-0--0---8\1---------------|
E|--0-----------------8----------------------|--0-0--0---8\1---------------|


Outro 

part 1 x4
e|-------------------------------------------------------------------------|
B|---------------6---------------------------------------------------------|
G|---------------9---------------------------------------------------------|
D|----0-00------------------0-00------8h10-7h8p0-5h7-----------------------|
A|----0-00--7p0-------------0-00--7p0--------------------------------------|
E|----0-00----------8p0h7---0-00-------------------------------------------|

part 2 x1
e|-------------------------------------------------------------------------|
B|-------------------------------------------------------------------------|
G|-------------------------------------------------------------------------|
D|--0-0-0-00-00-0-0-00-00-0-0-00-00-0-0-00---------------------------------|
A|--0-0-0-00-00-0-0-00-00-0-0-00-00-0-0-00---------------------------------|
E|--0-0-0-00-00-0-0-00-00-0-0-00-00-0-0-00---------------------------------|
    . . . .. .. . . .. .. . . .. .. . . ..

repeat part 1 x2

End on
e|-------------------------------------------------------------------------|
B|-------------------------------------------------------------------------|
G|-------------------------------------------------------------------------|
D|--8~--7~--5~--0~~--------------------------------------------------------|
A|--------------0~~--------------------------------------------------------|
E|--------------0~~--------------------------------------------------------|


That's it, enjoy!


************************************
| .   palm mute 
| /   slide up
| \   slide down
| h   hammer-on
| p   pull-off
| ~   vibrato
| +   harmonic
| x   Mute note
| b   Bend
| pb  Pre-bend
| br  Bend release
| pbr Pre-bend release
| brb Bend release bend

************************************
Добавлено: 13.06.2013
Вам также может быть интересно:
Другие материалы по этой песне:
  • Аккорды и текст

Страница создана 13.06.2013
http://primanota.ru/burden-of-a-day/white-coats-and-their-medicine-chords.htm
Привет, Гость.
Предлагаем пройти революционный курс по гитаре.
Подарок от PrimaNota.Ru, забирай!