PrimaNota.ru - самый крупный в мире бесплатный архив песенных текстов, аккордов, табулатур и нот


Burden Of A Day - Sorry Seacrest Its Caseys Countdown - таба, видео

Регистрация Запомнить меня
Войти через:  Facebook Google Twitter Vk Yandex Mail.ru

Burden Of A Day - Sorry Seacrest Its Caseys Countdown - таба, видео

Печатать
Просмотров: 126
Уроки эстрадного вокала в Санкт-Петербурге
-------------------------------------------------------------------------------
	    Burden Of A Day - Sorry Seacrest It's Casey's Countdown
-------------------------------------------------------------------------------
Tabbed by: Joseph Cross
Email: blkjx7@yahoo.com

Tuning: Drop D (DADGBE)



                                    INTRO


  Guitar 1
E|---------------------------------------------------------------------------|
B|---------------------------------------------------------------------------|
G|------3-3-3-3-3-3------3-3-3-3-3-3-3--------2-2-2-2-2-2------2-2-2-2-2-2-2-|x6
D|-0-0----------------0------------------0-0----------------0----------------|
A|-0-0----------------0------------------0-0----------------0----------------|
D|-0-0----------------0------------------0-0----------------0----------------|
  
  Guitar 2
E|---------------------------------------------------------------------------|
B|------3-3-3-3-3-3------3-3-3-3-3-3-3--------1-1-1-1-1-1------1-1-1-1-1-1-1-|
G|---------------------------------------------------------------------------|x6
D|-0-0----------------0------------------0-0----------------0----------------|
A|-0-0----------------0------------------0-0----------------0----------------|
D|-0-0----------------0------------------0-0----------------0----------------|



  Guitar 1
E|---------------------------------------------------------------------------|
B|---------------------------------------------------------------------------|
G|-14------------------------------------------------------------------------|x8
D|-----12--14--15----------12------------------------------------------------|
A|-----------------12--15----------------------------------------------------|
D|---------------------------------------------------------------------------|

  Guitar 2
E|---------------------------------------------------------------------------|
B|---------------------------------------------------------------------------|
G|---------------------------------------------------------------------------|
D|-0--------------------8--------------------5--------------------8----------|
A|-0--------------------8--------------------5--------------------8----------|
D|-0--------------------8--------------------5--------------------8----------|





                                  VERSE


  Guitar 1
E|---------------------------------------------------------------------------|
B|---------------------------------------------------------------------------|
G|---------------------------------------------------------------------------|
D|------------------------------------------------------------------------3--|
A|-----8-----7-----8-----7------3-0--------8-----7-----8-----7-----3-0-------|
D|-0-0---0-0---0-0---0-0---0-0---------0-0---0-0---0-0---0-0---0-0-----------|
   * *   * *   * *   * *   * *         * *   * *   * *   * *   * *
E|---------------------------------------------------------------------------|
B|---------------------------------------------------------------------------|
G|----------5--------3-------------------------------------------------------|
D|--3/5--7-----7--5-----5----------------------------------------------------|
A|---------------------------------------------------------------------------|
D|---------------------------------------------------------------------------|
 
                                 x2


  Guitar 2
E|---------------------------------------------------------------------------|
B|---------------------------------------------------------------------------|
G|---------------------------------------------------------------------------|
D|-----7-----5-----7-----5------------------7-----5-----7-----5--------------|
A|------------------------------7-----------------------------------7-----5--|
D|-0-0---0-0---0-0---0-0---0-0----10----0-0---0-0---0-0---0-0---0-0---10-----|
   * *   * *   * *   * *   * *          * *   * *   * *   * *   * *          
E|---------------------------------------------------------------------------|
B|---------------------------------------------------------------------------|
G|---------------------------------------------------------------------------|
D|----------7--------5-------------------------------------------------------|
A|--5/7--8-----8--7-----7----------------------------------------------------|
D|---------------------------------------------------------------------------|

                                 x2




                                 CHORUS


  Guitar 1 (Tremolo picking)
E|---------------------------------------------------------------------------|
B|-6------------------13-------------------18------------17------------------|
G|---------------------------------------------------------------------------|
D|---------------------------------------------------------------------------|
A|---------------------------------------------------------------------------|
D|---------------------------------------------------------------------------|

  Guitar 2
E|---------------------------------------------------------------------------|
B|---------------------------------------------------------------------------|
G|---------------------------------------------------------------------------|
D|-0------------------8----------------------------------5--------x-x-x-x---|
A|-0------------------8----------------------------------5--------x-x-x-x---|
D|-0------------------8----------------------------------5--------x-x-x-x---|




  Guitar 1
E|---------------------------------------------------------------------------|
B|---------------------------------------------------------------------------|
G|---------------------------------------------------------------------------|x8
D|-15-12----12-----14-15-12--------------------------------------------------|
A|-------15----12------------------------------------------------------------|
D|---------------------------------------------------------------------------|

  Guitar 2
E|---------------------------------------------------------------------------|
B|---------------------------------------------------------------------------|
G|---------------------------------------------------------------------------|x2
D|-8---------------------0-------------------3-------------------------------|
A|-8-(x16)---------------0-(x8)--------------3-(x8)--------------------------|
D|-8---------------------0-------------------3-------------------------------|




  Guitar 1
E|---------------------------------------------------------------------------|
B|---------------------------------------------------------------------------|
G|-----------------------------12----12-14----15-14--------------------------|x4
D|-15-12----12----14-15-12--15----12-------12--------------------------------|
A|-------15----12------------------------------------------------------------|
D|---------------------------------------------------------------------------|

 Guitar 2
E|---------------------------------------------------------------------------|
B|---------------------------------------------------------------------------|
G|---------------------------------------------------------------------------|x2
D|-88-8---88-8---8-8-------00-0---00-0---0-0---33-3---33-3---3-3-------------|
A|-88-8---88-8---8-8-(x2)--00-0---00-0---0-0---33-3---33-3---3-3-------------|
D|-88-8---88-8---8-8-------00-0---00-0---0-0---33-3---33-3---3-3-------------|
   **     **     *         **     **     *     **     **     *



  Guitar 1
E|---------------------------------------------------------------------------|
B|---------------------------------------------------------------------------|
G|---------------------------------------------------------------------------|
D|-8-----7---10---7----------------------------------------------------------|
A|---------------------------------------------------------------------------|
D|---------------------------------------------------------------------------|

  Guitar 2
E|---------------------------------------------------------------------------|
B|---------------------------------------------------------------------------|
G|---------------------------------------------------------------------------|
D|---------------------------------------------------------------------------|
A|-8-----8---8---8-----------------------------------------------------------|
D|-8-----8---8---8-----------------------------------------------------------|




                                 BRIDGE


  Guitar 1
E|---------------------------------------------------------------------------|
B|--------------------------------------------17h18--17h18-(x16)-------------|
G|------------------------------17h19--17h19---------------------------------|
D|---------------------------------------------------------------------------|
A|-0-(x32)-----8-(x32)-------------------------------------------------------|
D|-0-----------8-------------------------------------------------------------|

  Guitar 2
E|-------1--0-----0------------1--0------------------------------------------|
B|---------------------------------------------------------------------------|
G|----2--------2------------2--------2-------------3-----2--3----------------|x3
D|----------------------------------------------------3--------3-(x2)--------|
A|----------------------------------------------1----------------------------|
D|-0---------------------0---------------------------------------------------|




  Guitar 1
E|---------------------------------------------------------------------------|
B|---------------------------------------------------------------------------|
G|-10---------12---------14---------12----------3----------------------------|x3
D|--x-(x12)----x-(x4)-----x-(x16)----x-(x16-----x-(x16)----------------------|
A|--8---------10---------12---------10----------1----------------------------|
D|---------------------------------------------------------------------------|

 Guitar 2
E|--------------------------------------------------------------------------|
B|--------------------------------------------------------------------------|
G|--------------------------------------------------------------------------|x3
D|--xxxx----0----------2---------3---------10----------8--------------------|
A|--xxxx----0-(x12)----2-(x4)----3-(x16)---10-(x16)----8-(x16)--------------|
D|--xxxx----0----------2---------3---------10----------8--------------------|




  Guitar 1
E|---------------------------------------------------------------------------|
B|---------------------------------------------------------------------------|
G|--14-----------------------------------------------------------------------|x16
D|------12--14--15----------12-----------------------------------------------|
A|------------------12--15---------------------------------------------------|
D|---------------------------------------------------------------------------|

E|-------------13--12--------------------------------------------------------|
B|-----13--10----------13--10--13-(x8)--10-----------------------------------|
G|--10-----------------------------------------------------------------------|
D|---------------------------------------------------------------------------|
A|---------------------------------------------------------------------------|
D|---------------------------------------------------------------------------|


  Guitar 2
E|---------------------------------------------------------------------------|
B|---------------------------------------------------------------------------|
G|---------------------------------------------------------------------------|
D|-0---8---5---8----0-0----0--0--00000------8\0----0-0----0--0--00000--------|
A|-0---8---5---8----0-0----0--0--00000-(x4)-8\0----0-0----0--0--00000--------|
D|-0---8---5---8----0-0----0--0--00000------8\0----0-0----0--0--00000--------|
                    * *    *  *  *****             * *    *  *  *****
E|----------------------------------------------------------------------------|
B|----------------------------------------------------------------------------|
G|----------------------------------------------------------------------------|
D|--0--------8--------5--------8--------0--------8--------5--------8-------0--|
A|--0-(x16)--8-(x16)--5-(x16)--8-(x16)--0-(x16)--8-(x16)--5-(x16)--8-(x16)-0--|
D|--0--------8--------5--------8--------0--------8--------5--------8-------0--|
Добавлено: 22.09.2013
Другие материалы по этой песне:
  • Аккорды и текст

Страница создана 22.09.2013
http://primanota.ru/burden-of-a-day/sorry-seacrest-its-caseys-countdown-chords.htm
Привет, Гость.
Предлагаем пройти революционный курс по гитаре.
Подарок от PrimaNota.Ru, забирай!