PrimaNota.ru - самый крупный в мире бесплатный архив песенных текстов, аккордов, табулатур и нот


Burden Of A Day - No Blood No Foul - таба, видео

Регистрация Запомнить меня
Войти через:  Facebook Google Twitter Vk Yandex Mail.ru

Burden Of A Day - No Blood No Foul - таба, видео

Печатать
Просмотров: 141
Уроки эстрадного вокала в Санкт-Петербурге
E|---------------------------------------|
B|---------------------------------------|
G|---------------------------------------|
D|-------8-8-8-8--8-8-------4-4-4-4--4-4-|
A|-88888-8-8-8-8-88-8-44444-4-4-4-4-44-4-|
D|-88888-8-8-8-8-88-8-44444-4-4-4-4-44-4-|
pm *****         *    *****         *

E|-----------------|
B|-------------7---| x4
G|---------------8-|
D|-----------------|
A|-11111-11111-----|
D|-11111-11111-----|
pm ***** *****

E|---------------------------------------------------------------------------------|     
B|---------------------------------------------------------------------------------| 
G|---------------------------------------------------------------------------------|     
D|---------------------------------------------------------------------------------|     
A|-88888-8-8-8-8-88888-88888-8-8-8-8-88888-44444-4-4-4-4-44444-44444-4-4-4-4-44444-|     
D|-88888-8-8-8-8-88888-88888-8-8-8-8-88888-44444-4-4-4-4-44444-44444-4-4-4-4-44444-|     
pm ***** * * * * ***** ***** * * * * ***** ***** * * * * ***** ***** * * * * *****

E|-----------------------------------------------------------------------------|    
B|---------------------------------------------------------------------------7-| 
G|---------------------------------------------------------------------------6-|     
D|-----------------------------------------------------------------------------|    
A|-88888-8-8-8-8-88888-88888-8-8-8-8-88888-44444-4-4-4-4-44444-44444-4-4-4-4---|     
D|-88888-8-8-8-8-88888-88888-8-8-8-8-88888-44444-4-4-4-4-44444-44444-4-4-4-4---|     
pm ***** * * * * ***** ***** * * * * ***** ***** * * * * ***** ***** * * * * 

E|--------------------------------------------------------|
B|--------------------------------------------------------|
G|------------------11---11--10------6----5-------8---5h6-|
D|-8----11----10----------------4-------------6-----------|
A|-8----------------------------4-------------------------|
D|-8-88----88----88----8---8----4-44---44---44--4---4-----|
pm   **    **    **    *   *      **   **   **  *   *     

E|-------------------------------------------------------|
B|-------------------------------------------------------|
G|------------------11---11--10------6----5-----10101010-|
D|-8----11----10----------------4-------------6-x-x-x-x--|
A|-8----------------------------4---------------8-8-8-8--|
D|-8-88----88----88----8---8----4-44---44---44-----------|
pm   **    **    **    *   *      **   **   **   

E|----------------------------------------------------------------------------|
B|-------------------------------------------------------------------xxxxxxxx-| x2
G|-------------------------------------------------------------------xxxxxxxx-|
D|-88888888888888888888888888888888-44444444444444444444444444444444-xxxxxxxx-|
A|-88888888888888888888888888888888-44444444444444444444444444444444-xxxxxxxx-|
D|-88888888888888888888888888888888-44444444444444444444444444444444----------|

E|---------------------------------------------------------------------------------|     
B|---------------------------------------------------------------------------------| 
G|---------------------------------------------------------------------------------|     
D|---------------------------------------------------------------------------------|     
A|-88888-8-8-8-8-88888-88888-8-8-8-8-88888-44444-4-4-4-4-44444-44444-4-4-4-4-44444-|     
D|-88888-8-8-8-8-88888-88888-8-8-8-8-88888-44444-4-4-4-4-44444-44444-4-4-4-4-44444-|     
pm ***** * * * * ***** ***** * * * * ***** ***** * * * * ***** ***** * * * * *****

E|-----------------------------------------------------------------------------|    
B|---------------------------------------------------------------------------7-| 
G|---------------------------------------------------------------------------6-|     
D|-----------------------------------------------------------------------------|    
A|-88888-8-8-8-8-88888-88888-8-8-8-8-88888-44444-4-4-4-4-44444-44444-4-4-4-4---|     
D|-88888-8-8-8-8-88888-88888-8-8-8-8-88888-44444-4-4-4-4-44444-44444-4-4-4-4---|     
pm ***** * * * * ***** ***** * * * * ***** ***** * * * * ***** ***** * * * * 

E|--------------------------------------------------------|
B|--------------------------------------------------------|
G|------------------11---11--10------6----5-------8---5h6-|
D|-8----11----10----------------4-------------6-----------|
A|-8----------------------------4-------------------------|
D|-8-88----88----88----8---8----4-44---44---44--4---4-----|
pm   **    **    **    *   *      **   **   **  *   *     

E|-------------------------------------------------------|
B|-------------------------------------------------------|
G|------------------11---11--10------6----5-----10101010-|
D|-8----11----10----------------4-------------6-x-x-x-x--|
A|-8----------------------------4---------------8-8-8-8--|
D|-8-88----88----88----8---8----4-44---44---44-----------|
pm   **    **    **    *   *      **   **   **   

E|----------------------------------------------------------------------------|
B|-------------------------------------------------------------------xxxxxxxx-|
G|-------------------------------------------------------------------xxxxxxxx-|
D|-88888888888888888888888888888888-44444444444444444444444444444444-xxxxxxxx-|
A|-88888888888888888888888888888888-44444444444444444444444444444444-xxxxxxxx-|
D|-88888888888888888888888888888888-44444444444444444444444444444444----------|

E|-------------------------------------------------------------------------------|
B|-------------------------------------------------------------------xxxxxxxx----|
G|-------------------------------------------------------------------xxxxxxxx-10-|
D|-88888888888888888888888888888888-44444444444444444444444444444444-xxxxxxxx-x--|
A|-88888888888888888888888888888888-44444444444444444444444444444444-xxxxxxxx-8--|
D|-88888888888888888888888888888888-44444444444444444444444444444444-------------|

E|-------------------------------------------|
B|-------------------------------------------|
G|-3-3333-3-3333-----------------------------|
D|-3-3333-3-3333-4-4444-4-4444-4-4444-4-4444-|
A|-1-1111-1-1111-4-4444-4-4444-4-4444-4-4444-|
D|---------------4-4444-4-4444-4-4444-4-4444-|

E|---------------------------------------------------------|
B|---------------------------------------------------------|
G|-3-3333-3-3333-3-3333-3-3333-----------------------------|
D|-3-3333-3-3333-3-3333-3-3333-4-4444-4-4444-4-4444-4-4444-|
A|-1-1111-1-1111-1-1111-1-1111-4-4444-4-4444-4-4444-4-4444-|
D|-----------------------------4-4444-4-4444-4-4444-4-4444-|

E|----------------------------|
B|----------------------------| x2
G|----------------------------|
D|----------------------------|
A|-88888--88888--44444--44444-|
D|-88888--88888--44444--44444-|
pm *****  *****  *****  *****

E|------------------|
B|------------------| x4
G|------------------|
D|-11p0-10p0-8p0-6--|
A|------------------|
D|------------------|

E|--------------------------|
B|--------------------------|
G|--------------------------|
D|--------------------------|
A|-44444-44444--44444-44444-|
D|-44444-44444--44444-44444-|
pm ***** *****  ***** *****

E|------------------|
B|------------------| x4
G|------------------|
D|-11p0-10p0-8p0-6--|
A|------------------|
D|------------------|

E|-------------------------------|
B|-------------------------------|
G|---------------------------10--|
D|---------------------------x---|
A|-44444-44444--44444-44444--8---|
D|-44444-44444--44444-44444------|
pm ***** *****  ***** *****

clean part (didn't find that yet)

E|-----------------|
B|-----------------|
G|-111111111111111-|
D|-x-x-x-x-x-x-x-x-|
A|-9-9-9-9-9-9-9-9-|
D|-----------------|

E|----------------------------------------------------------------------|
B|-1414141414141414-1313131313131313-1616161616161616-1313131313131313--|
G|----------------------------------------------------------------------|
D|----------------------------------------------------------------------|
A|----------------------------------------------------------------------|
D|----------------------------------------------------------------------|

E|------------------------------------------------------------------|
B|-1414141414141414-1313131313131313-111111111111111111111111111111-| -> not 1 but 11
G|------------------------------------------------------------------|
D|------------------------------------------------------------------|
A|------------------------------------------------------------------|
D|------------------------------------------------------------------|

E|----------------------------------------------------------------------|
B|-1414141414141414-1313131313131313-1616161616161616-1313131313131313--|
G|----------------------------------------------------------------------|
D|----------------------------------------------------------------------|
A|----------------------------------------------------------------------|
D|----------------------------------------------------------------------|

E|------------------------------------------------------------------|
B|-1414141414141414-1313131313131313-111111111111111111111111111111-| -> not 1 but 11
G|------------------------------------------------------------------|
D|------------------------------------------------------------------|
A|------------------------------------------------------------------|
D|------------------------------------------------------------------|

E|----------------------------------------|   
B|----------------------------------------| 
G|----------------------------------------|   
D|----------------------------------------|    
A|-88888-88--88888-88--44444-44--44444-44-|    
D|-88888-88--88888-88--44444-44--44444-44-|    
pm ***** **  ***** **  ***** **  ***** **

E|-------------------------------------------|   
B|-------------------------------------------| 
G|-------------------------------------------|   
D|----------------------------------------8~-|    
A|-88888-88--88888-88--44444-44--44444-44-8~-|    
D|-88888-88--88888-88--44444-44--44444-44-8~-|    
pm ***** **  ***** **  ***** **  ***** **
Добавлено: 21.09.2013
Другие материалы по этой песне:
  • Аккорды и текст

Страница создана 21.09.2013
http://primanota.ru/burden-of-a-day/no-blood-no-foul-chords.htm
Привет, Гость.
Предлагаем пройти революционный курс по гитаре.
Подарок от PrimaNota.Ru, забирай!