PrimaNota.ru - самый крупный в мире бесплатный архив песенных текстов, аккордов, табулатур и нот


Burden Of A Day - Hello My Nae Is Euphoria - таба, видео

Регистрация Запомнить меня
Войти через:  Facebook Google Twitter Vk Yandex Mail.ru

Burden Of A Day - Hello My Nae Is Euphoria - таба, видео

Печатать
Просмотров: 87
Gtr. 1

Intro

eb-------------------------------------------------------------------|
bb-------------------------------------------------------------------|
gb----------------------------------7-----7-----7--------------------|
db-----4-5-4-7-5-4-5-4--------4-5-4---5-4---5-4---5-4----------------|
ab---------------------5---------------------------------------------|
Db-2-2--------------------2-2----------------------------------------|
   * *                    * *

Verse

eb--------------------------------------------------------------------|
bb--------------------------------------------------------------------|
gb--9---5---7---4----77779999-(first time only)-----------------------|2x
db--9---5---7---4-----------------------------------------------------|
ab--7---3---5---2-----------------------------------------------------|
Db--------------------------------------------------------------------|
    *   *   *   *    ********

eb--2h3-(repeatedly)--|
bb--------------------|
gb--------------------|
db--------------------|
ab--------------------|
Db--------------------|

Chorus

eb-------------------------------------------------------------------|
bb-------------------------------------------------------------------|
gb------5---------------------5--------------------------------------|
db--2---5---0---2---------2---5---0---2---222222222--2---------------|
ab--2---3---0---2---------2---3---0---2---222222222--2---------------|
Db--2-------0---2---------2-------0---2---222222222--2---------------|
                                          *********


Verse 2

eb-------------------------------------------------------------------|
bb--3----------------------------------------------------------------|
gb--2-----(strum a couple times)-------------------------------------|
db--0----------------------------------------------------------------|
ab-------------------------------------------------------------------|
Db-------------------------------------------------------------------|


eb-------------------------------------------------------------------|
bb--0h7h8-(repeatedly)---0h5h7-(repeatedly)--------------------------|
gb-------------------------------------------0h4h5-(repeatedly)------|
db-------------------------------------------------------------------|
ab-------------------------------------------------------------------|
Db-------------------------------------------------------------------|


eb-------------------------------------------------------------------|
bb-------------------------------------------------------------------|
gb-----------5555-7777----------5--9--7---5--4--2--------------------|
db--2-2222---5555-7777--(4x)----5--9--7---5--4--2-----(2x)-----------|
ab--2-2222---3333-5555----------3--7--5---3--2--0--------------------|
Db--2-2222-----------------------------------------------------------|
      ***

eb-------------------------------------------------------------------|
bb-------------------------------------------------------------------|
gb-------------------------------------------------------------------|
db---2---2222----2---2222-----(222--2222----222--2222-----)----------|
ab---2---2222----2---2222-----(222--2222----222--2222---2x)----------|
Db---2---2222----2---2222-----(222--2222----222--2222-----)----------|
     *   ****    *   ****           ****         ****

eb-------------------------------------------------------------------|
bb--5/7-0h8-8p0-7p0---(repeatedly)-----------------------------------|
gb-------------------------------------------------------------------|
db------------------------------------2-2----------------------------|
ab------------------------------------2-2----------------------------|
Db------------------------------------2-2----------------------------|


Chorus

eb-------------------------------------------------------------------|
bb-------------------------------------------------------------------|
gb------5---------------------5--------------------------------------|
db--2---5---0---2---------2---5---0---2---222222222--2---------------|
ab--2---3---0---2---------2---3---0---2---222222222--2---------------|
Db--2-------0---2---------2-------0---2---222222222--2---------------|
                                          *********

============================================================================

Gtr. 2

Intro

eb--------------------------------------------------------------------|
bb--------------------------------------------------------------------|
gb----------------------------------------------4-5-7-7-------4-5-7-7-|
db---222----(lead)---------222-----(lead)--222--4-5-7-7--222--4-5-7-7-|
ab---222-------------------222-------------222--2-3-5-5--222--2-3-5-5-|
Db---222-------------------222-------------222-----------222----------|
     ***                   ***             ***           ***


Verse

eb-------------------------------------------------------------------|
bb-------------------------------------------------------------------|
gb---9---5---7---4---------------------------------------------------|
db---9---5---7---4---------------------------------------------------|
ab---7---3---5---2---------------------------------------------------|
Db-------------------------------------------------------------------|
     *   *   *   *


eb-------------------------------------------------------------------|
bb-------------------------------------------------------------------|
gb--9999999--5555555--7777777--4444444-------------------------------|
db--9999999--5555555--7777777--4444444-------------------------------|
ab--7777777--3333333--5555555--2222222-------------------------------|
Db-------------------------------------------------------------------|
     ******   ******   ******   ******


Chorus

eb-------------------------------------------------------------------|
bb-------------------------------------------------------------------|
gb------5---------------------5--------------------------------------|
db--2---5---0---2---------2---5---0---2---222222222--2---------------|
ab--2---3---0---2---------2---3---0---2---222222222--2---------------|
Db--2-------0---2---------2-------0---2---222222222--2---------------|
                                          *********


Verse 2

eb-------------------------------------------------------------------|
bb--3----------------------------------------------------------------|
gb--2-----(strum a couple times)-------------------------------------|
db--0----------------------------------------------------------------|
ab-------------------------------------------------------------------|
Db-------------------------------------------------------------------|


eb-----------|
bb-----------|
gb-----------|
db--2-2222-2-|
ab--2-2222-2-|
Db--2-2222-2-|
      ***

eb-------------------------------------------------------------------|
bb-------------------------------------------------------------------|
gb-----------5555-7777----------5--9--7---5--4--2--------------------|
db--2-2222---5555-7777--(4x)----5--9--7---5--4--2-----(2x)-----------|
ab--2-2222---3333-5555----------3--7--5---3--2--0--------------------|
Db--2-2222-----------------------------------------------------------|
      ***


eb-------------------------------------------------------------------|
bb-------------------------------------------------------------------|
gb-------------------------------------------------------------------|
db---2---2222----2---2222-----(222--2222----222--2222-----)----------|
ab---2---2222----2---2222-----(222--2222----222--2222---2x)----------|
Db---2---2222----2---2222-----(222--2222----222--2222-----)----------|
     *   ****    *   ****           ****         ****

eb---3/5-0-0h7p0-5p0----(repeatedly)---------------------------------|
bb-------------------------------------------------------------------|
gb-------------------------------------------------------------------|
db--------------------------------------2-2--------------------------|
ab--------------------------------------2-2--------------------------|
Db--------------------------------------2-2--------------------------|


Chorus

eb-------------------------------------------------------------------|
bb-------------------------------------------------------------------|
gb------5---------------------5--------------------------------------|
db--2---5---0---2---------2---5---0---2---222222222--2---------------|
ab--2---3---0---2---------2---3---0---2---222222222--2---------------|
Db--2-------0---2---------2-------0---2---222222222--2---------------|
                                          *********
Добавлено: 01.06.2013
Другие материалы по этой песне:
  • Аккорды и текст

Страница создана 01.06.2013
http://primanota.ru/burden-of-a-day/hello-my-nae-is-euphoria-chords.htm
Привет, Гость.
Предлагаем пройти революционный курс по гитаре.
Подарок от PrimaNota.Ru, забирай!