PrimaNota.ru - самый крупный в мире бесплатный архив песенных текстов, аккордов, табулатур и нот


Burden Of A Day - Battle For Hoth - таба, видео

Регистрация Запомнить меня
Войти через:  Facebook Google Twitter Vk Yandex Mail.ru

Burden Of A Day - Battle For Hoth - таба, видео

Печатать
Просмотров: 97
Burden Of A Day
"Battle For Hoth"
Blessed Be Our Ever After" (2008)

I noticed someone tabbed the intro, and i want to give them
credit becasue it is 100% right. So im going to give you the
full song. I recorded over it and it sounds good.

Tuning Drop C:  C G C F A D

Things to know:
-h hammer on
-p pull off
-/ slide up
-\ slide down
-* pinch harmonic
-b bend
-. palm mute
-~ let note ring

Guitar 1          Guitar 2
D:---------------:---------------:
A:---------------:---------------:
F:---------------:---------------:
C:-------5-------:---5-7-8-7-5-7-:
G:-5-7-8---8-7-8-:-8-------------:
C:---------------:---------------:

Guitar 1 (x2)
D:-------------------------------------------------------------:
A:-------------------------------------------------------------:
F:-------------------------------------------------------------:
C:-----5---------5---7-----5-----------------------------------:
G:-5-8---7-3/5-8---7---5-8---7-3/5-8-8h10p0-7h8p0-8h10p0-7h8p0-:
C:-------------------------------------------------------------:

Guitar 2 (x2)
D:-----------------------------------------------------------:
A:-----------------------------------------------------------:
F:-------------------5---------------------------------------:
C:---7-8-5-2/3-7-8-5---3-7-8-5-2/3-7-7h8p0-5h7p0-7h8p0-5h7p0-:
G:-8---------------------------------------------------------:
C:-----------------------------------------------------------:

Both Guitars (x4)
D:---------------------------:
A:-1010101010----------10----:
F:-1010101010----------10----:
C:--8-8-8-8-8--0-------------:
G:--8-8-8-8-8--0-00000----00-:
C:--8-8-8-8-8--0-00000----00-:
                 .....    ..

Both Guitars (x4)
D:------------------------------:
A:---------10--------10-----10~-:
F:---------10--------10-----10~-:
C:-0----------------------------:
G:-0-00000----00-000----0-0-----:
C:-0-00000----00-000----0-0-----:
     .....    .. ...    . .

Both Guitars
D:------------------------:
A:------------------------:
F:------------------------:
C:------------------------:
G:-0000000-xxxxxxx-0-10*b-:
C:-0000000-xxxxxxx-0------:
   .......         .

Guitar 1 (x8)
D:--------------------:
A:--------------------:
F:--------------------:
C:--------------------:
G:-0000000-00-000-000-:
C:-0000000-00-000-000-:   
   ....... .. ... ...

Guitar 2 (x2 after guitar 1 plays above x4)
D:-12-----12-----12------12------12------12-10----10----10----10----10----10:
A:--11-10---11-10---11-10---11-10---11-10-----10----10----10----10----10----:
F:----------------------------------------------12----12----12----12----12--:
C:--------------------------------------------------------------------------:
G:--------------------------------------------------------------------------:
C:--------------------------------------------------------------------------:

Both Guitars
D:-------------:
A:-------------:
F:-------------:
C:-0~-0~-0~-0~-:
G:-0~-0~-0~-0~-:
C:-0~-0~-0~-0~-:

Guitar 1 (x2)                  
D:-----------------------------:---------------------------------------:
A:-----------------------------:---------------------------------------:
F:---(play this twice)---------:---------------------------------------:
C:-----------------------------:-8-8888-10-10101010-8-8888-10-10101010-:
G:---10-8---7-8---8h10p0-7h8p0-:-8-8888-10-10101010-8-8888-10-10101010-:
C:-00--0-000-0--0--------------:-8-8888-10-10101010-8-8888-10-10101010-:
   ..  . ... .  .

Guitar 2 (x2)
D:---------------------------:-----------------------------:
A:----(play twice)-----------:-----------------------------:
F:---------------------------:-3-3333-5-5555-3-3333-5-5555-:
C:---5-3---2-3---3h5p0-2h3p0-:-3-3333-5-5555-3-3333-5-5555-:
G:---------------------------:-1-1111-3-3333-1-1111-3-3333-:
C:-00-0-000-0--0-------------:-----------------------------:
   .. . ... .  .

Guitar 1 (x2)
D:-------------------------------------------------------:
A:-------------------------------------------------------:
F:-------------------------------------------------------:
C:-------------------------------------------------------:
G:---10-8---7-8--8h10p0-7h8p0---10-8---7-8---8h10p0-10*b-:
C:-00--0-000-0--0-------------00--0-000-0--0-------------:
   ..  . ... .  .             ..  . ... .  .

Guitar 2 (x2)
D:---------------------------------------------------:
A:---------------------------------------------------:
F:---------------------------------------------------:
C:---5-3---2-3--3h5p0-2h3p0---5-3---2-3---3h5p0------:
G:----------------------------------------------10*b-:
C:-00-0-000-0--0------------00-0-000-0--0------------:
   .. . ... .  .            .. . ... .  .

Guitar 1
D:----------------------:
A:----------------------:
F:----------------------:
C:-----8~-8~-0~-3-5-7-8-:
G:-0~--8~-8~-0~---------:
C:-0~--8~-8~-0~---------:
   .

Guitar 2
D:--------------------------:
A:--------------------------:
F:----10~-9~----10-12-14-15-:
C:-----x--x--0~--x--x--x--x-:
G:-0~--8~-7~-0~--8-10-12-13-:
C:-0~--------0~-------------:
   .
   
Guitar 1 (x4)
D:-------------:
A:-------------:
F:-------------:
C:-------------:
G:-88-88-00-00-:
C:-88-88-00-00-:
   .. .. .. ..

(For guitar 2 i havent figured this out yet i just wanted to put everything  else up for now.)

Guitar 1 (x2)            Guitar 2 (x2)  
D:----------------------:-------------------------:
A:----------------------:-------------------------:
F:----------------------:-10101010101010-99999999-:
C:-8888888888-000000000-:--x-x-x-x-x-x-x-xxxxxxxx-:
G:-8888888888-000000000-:--8-8-8-8-8-8-8-77777777-:
C:-8888888888-000000000-:-------------------------:

Both Guitars
D:--------------:
A:--------------:
F:--------------:
C:-8-10-7-8-5-7-:
G:-8-10-7-8-5-7-:
C:-8-10-7-8-5-7-:

Both Guitars              (x2)  Then
D:-----------------------------:-------------------------------:
A:---6---------------6---------:---6---------------6-----------:
F:---9---------------9---------:---9---------------9-----------:
C:-0---0-8\\3-3-5--0---0-------:-0---0-8\\3-3-5--0---0---------:
G:-0---0-8\\3-3-5--0---0-------:-0---0-8\\3-3-5--0---0-----5*b-:
C:-0---0-8\\3-3-5--0---0-8-7-5-:-0---0-8\\3-3-5--0---0-8-7-----:
              . .                           . .

Both Guitars
D:------------------------------------:
A:---6-------------------6------------:
F:---9-------------------9------------:
C:-0---0-8\\3-3-5-3-5--0---0-------0~-:
G:-0---0-8\\3-3-5-3-5--0---0-------0~-:
C:-0---0-8\\3-3-5-3-5--0---0-8-7-5-0~-:
              . . . .

Guitar 1
D:---------------------------------------------------------:
A:---------------------------------------------------------:
F:---------------------------------------------------------:
C:-8-8-8/10-8888888-101010101010-121212121212-151515151515-:
G:-8-8-8/10-8888888-101010101010-121212121212-151515151515-:
C:-8-8-8/10-8888888-101010101010-121212121212-151515151515-:

Guitar 2
D:-------------------------------------------------------------:
A:-------------------------------------------------------------:
F:-3-3-3/5-101010101010-121212121212-141414141414-171717171717-:
C:-3-3-3/5--x-x-x-x-x-x--x-x-x-x-x-x--x-x-x-x-x-x--x-x-x-x-x-x-:
G:-1-1-1/3--8-8-8-8-8-8-101010101010-121212121212-151515151515-:
C:-------------------------------------------------------------:

Guitar 1                  Guitar 2
D:-----------------------:---------------------------:
A:-----------------------:---------------------------:
F:-----------------------:-101010101010-121212121212-:
C:-88888888-101010101010-:--x-x-x-x-x-x--x-x-x-x-x-x-:
G:-88888888-101010101010-:--8-8-8-8-8-8-101010101010-:
C:-88888888-101010101010-:---------------------------:

Guitar 1
D:--------------------------------------------------------:
A:--------------------------------------------------------:
F:--------------------------------------------------------:
C:--------------------------------------------------------:
G:---10-8---7-8---8h10p0-7h8p0---10-8---7-8---8h10p0-10*b-:
C:-00--0-000-0--0--------------00--0-000-0--0-------------:
   ..  . ...    .              ..  . ... .  .

Guitar 2
D:-----------------------------------------------------:
A:-----------------------------------------------------:
F:-----------------------------------------------------:
C:----5-3---2-3---3h5p0-2h3p0---5-3---2-3---3h5p0------:
G:------------------------------------------------10*b-:
C:-00--0-000-0--0-------------00-0-000-0--0------------:
   ..  . ... .  .             .. . ... .  .

Guitar 1
D:-------------------------------------------------------:
A:-------------------------------------------------------:
F:-------------------------------------------------------:
C:-------------------------------------------------0~-0~-:
G:---10-8---7-8---8h10p0-7h8p0---10-8---7-8--7~-8~-0~-0~-:
C:-00--0-000-0--0--------------00--0-000-0--0------0~-0~-:
   ..  . ... .  .              ..  . ... .  . 

Guitar 2
D:-----------------------------------------------------:
A:-----------------------------------------------------:
F:-----------------------------------------------------:
C:----5-3---2-3---3h5p0-2h3p0---5-3---2-3--2~-3~-0~-0~-:
G:-----------------------------------------------0~-0~-:
C:-00--0-000-0--0-------------00-0-000-0--0------0~-0~-:
   ..  . ... .  .             .. . ... .  .

Guitar 1                    Guitar 2
D:-------------------------:----------------------:
A:-------------------------:----------------------:
F:-------------------------:----------33333/555---:
C:----------88888/101010-0-:----------33333/555-0-:
G:----------88888/101010-0-:-11111111111111/333-0-:
C:-88888888888888/101010-0-:-.........----------0-:
   .........

Guitar 1  (play the rest of song with this)
D:-------:---------------------------:
A:-------:---------------------------:
F:-------:---------------------------:
C:-xx-xx-:-888888888888-000000000000-:
G:-xx-xx-:-888888888888-000000000000-:
C:-xx-xx-:-888888888888-000000000000-:

Guitar 2  (play this when gtr 1 plays 8's)
D:-------:----------------------:(x2)
A:-------:----------------------:
F:-------:-101010101010-9999999-:
C:-xx-xx-:--x-x-x-x-x-x-xxxxxxx-:
G:-xx-xx-:--8-8-8-8-8-8-7777777-:
C:-xx-xx-:----------------------:



Guitar 2 (play this rest of song)(1st part with gtr 1 0's, 2nd part
                                  gtr 1 8's.)
D:--------------------------------:-----------------------:
A:--------------------------------:-----------------------:
F:----10----9----12----10----9/10-:-101010101010-99999999-:
C:-00--x-00-x-00--x-00--x-00-x/-x-:--x-x-x-x-x-x-xxxxxxxx-:
G:-00--8-00-7-00-10-00--8-00-7/-8-:--8-8-8-8-8-8-77777777-:
C:-00----00---00----00----00------:-----------------------:


Hope you liked.
You can email me at: irbyl@cg61.navy.mil  for any questions/comments.
Thanks for looking at my tab.
Check out my tabs for other BOAD, and Before Their Eyes.
Добавлено: 06.12.2013
Другие материалы по этой песне:
  • Аккорды и текст

Страница создана 19.11.2013
http://primanota.ru/burden-of-a-day/battle-for-hoth-chords.htm
Привет, Гость.
Предлагаем пройти революционный курс по гитаре.
Подарок от PrimaNota.Ru, забирай!