PrimaNota.ru - самый крупный в мире бесплатный архив песенных текстов, аккордов, табулатур и нот


Burden Brothers - Youre So God Damn Beautiful - текст песни, таба, видео

Регистрация Запомнить меня
Войти через:  Facebook Google Twitter Vk Yandex Mail.ru

Burden Brothers - Youre So God Damn Beautiful - текст песни, таба, видео

Печатать
Просмотров: 126
You're So God Damn Beautiful:Song
Buried In Your Black Heart: Album
Burden Brothers: Artist
2003: Year


Intro Riff: Guitar one plays the whole thing. Guitar 2 plays the last four notes along 
Guitar 1.
E-------------------------------------------------------|
B-------------------------------------------------------|
G-------------------------------------------------------|
D-----------------------------------------------7-7-----|
A--7-7-9---4-4-8--7-7-9---4-4-8--7-7-9---4-4-8--5-5-8-7-|
E--5-5-5-0-2-2-6--5-5-5-0-2-2-6--5-5-5---2-2-6------6-5-|

Verse: Play the Main Riff but palm mute it for 2 bars. Then play it for another 2 bars.

Pre-Chorus:
Guitar 2
E-------------------------------------------------|
B-------------------------------------------------|
G-------------------------------------------------|
D-------------------------------------------------|
A-2-2--------3-3--------4-4-------5-4-5-2-3-2-1-0-|
E-0-0--------1-1--------2-2-----------------------|

Guitar 1: Play in between the E, F, F# and lead in.
E-----------------------------------------|
B----12---12-----13---13-----14---14------|
G----14b--14b----15b--15b----16b--16b-----|
D-----------------------------------------|
A-----------------------------------------|
E-----------------------------------------|

Chorus is the main riff X2.

Repeat Verse without palm muting

Repeat Pre-Chorus

Repeat Chorus But play twice

Bridge:
Both Guitars
E-----------------------------------|
B-----------------------------------|
G-----------------------------------|
D-----------------------------------|
A-0h7----8-----9--0h7---8-----------|
E-----8h9--9h10------8h9--9b(10)r---|

E----------------------------|
B----------------------------|
G----------------------------|
D----------------------------|
A-0h7----8-----9--0h7---8----|
E-----8h9--9h10------8h9--9--|

E-----------------------------------|
B-----------------------------------|
G-----------------------------------|
D-----------------------------------|
A-0h7----8-----9--0h7---8-----------|
E-----8h9--9h10------8h9--9b(10)r---|

E----------------------------------|
B----------------------------------|
G----------------------------------|
D----------------------------------|
A-0h7----8-----9--0h7---8---8------|
E-----8h9--9h10------8h9--9---9----|

E-----------------------------------|
B-----------------------------------|
G-----------------------------------|
D-----------------------------------|
A-0h7----8-----9--0h7---8-----------|
E-----8h9--9h10------8h9--9b(10)r---|

E-------------------------------------|
B-------------------------------------|
G-------------------------------------|
D-------------------------------------|
A-0h7----8-----9--0h7---8---8-----8---|
E-----8h9--9h10------8h9--9---9-------|

E-----------------------------------|
B-----------------------------------|
G-----------------------------------|
D-----------------------------------|
A-0h7----8-----9--0h7---8-----------|
E-----8h9--9h10------8h9--9b(10)r---|

E----------------|
B----------------|
G----------------|
D----------------|
A-0h7----8-----9-|
E-----8h9--9h10--|

Guitar 1:
E|-----------------|
B|-----------------|
G|-----------------|
D|-----------------|
A|-5-4-5-2-3-2-1-0-|
E|-----------------|

Guitar 2
E|-----------------|
B|-----------------|
G|-----------------|
D|-----------------|
A|-7-6-7-4-5-4-3-2-|
E|-----------------|

Solo:
Guitar 1:
E|-----------------------------------|------------------------------------------------|
B|-------------------5---------------|------------------------------------------------|
G|-4b(6) 4b(6)-4-2-4b(6)--4b(6)r-2--2-4-2-|-4b(6) 4b(6)-4-2-4b(6)r-2--4b(6)-4b(6)-----|
D|----------------------------4------|----------------------4-------------------------|
A|-----------------------------------|------------------------------------------------|
E|-----------------------------------|------------------------------------------------|

Guitar 2: Match this with the Guitar 1 Part above.
E|-------------------5---------------| -------------------------------------------|
B|-----------------------------------| -------------------------------------------|
G|-7b(9)7b(9)-7-6-7b(9)--7b(9)-6-7-6-----|-7b(9)7b(9)-7-6-7b(9)r-6-7-6------------|
D|-------------------------------7---|--------------------------------------------|
A|-----------------------------------| -------------------------------------------|
E|-----------------------------------| -------------------------------------------|

Guitar 1:
E|-----------------------------------|------------------------------------------------|
B|-------------------5---------------|------------------------------------------------|
G|-4b(6) 4b(6)-4-2-4b(6)--4b(6)r-2--2-4-2-|-4b(6) 4b(6)-4-2-4b(6)r-2--4b(6)-4b(6)-----|
D|----------------------------4------|----------------------4-------------------------|
A|-----------------------------------|------------------------------------------------|
E|-----------------------------------|------------------------------------------------|

Guitar 2: Match this with the guitar 1 part above, like last time.
E|--------------------------------------------------------|
B|---------------------------17---------------------------|
G|-16b(18) 16b(18)-16-14-16b(18)--16b(18)r-14--14-16-14---|
D|--------------------------------------16----------------|
A|--------------------------------------------------------|
E|--------------------------------------------------------|

E|------------------------------------------------------|
B|------------------------------------------------------|
G|-16b(18) 16b(18)-16-14-16b(18)r-14--16b(18)-16b(18)---|
D|------------------------------16----------------------|
A|------------------------------------------------------|
E|------------------------------------------------------|

and then Guitar 2: Goes on some crazy shredding Riffs. The Secret to playing this part
to get SO much feedback that no one can actually hear the notes. Also, try to play a lot
highs and hold them. Listen to the song for guidance.

Pre-Chorus Variation
Pre-Chorus

Chorus

Chorus

Chorus

Chorus

Outro:
E------------------------------------------|
B------------------7-6-7-4-5-4-3-2--2\\\\--|
G-----------------------------------2\\\\--|
D-----------------------------------2\\\\--|
A-0h7----8-----9---5-4-5-2-3-2-1-0--0\\\\--|
E-----8h9--9h10----------------------------|
Добавлено: 15.07.2012
Другие материалы по этой песне:
  • Аккорды и текст

Страница создана 24.04.2012
http://primanota.ru/burden-brothers/youre-so-god-damn-beautiful-chords.htm
Привет, Гость.
Предлагаем пройти революционный курс по гитаре.
Подарок от PrimaNota.Ru, забирай!