PrimaNota.ru - самый крупный в мире бесплатный архив песенных текстов, аккордов, табулатур и нот


Burden Brothers - Shine - таба, видео

Регистрация Запомнить меня
Войти через:  Facebook Google Twitter Vk Yandex Mail.ru

Burden Brothers - Shine - таба, видео

Печатать
Просмотров: 132
Уроки эстрадного вокала в Санкт-Петербурге
Burden Brothers - Shine
Tabbed by: Shawn Klapproth
Tuning: EADGBE (standard)

Intro and Verse
e------------------------|
B------------------------|
G-2-2--------0-0---------| x8
D-2-2----0-2---------0-2-|
A-0-0--0---------0-4-----|
E------------------------|


e---------|
B---------|
G-x-x-x-x-
D-x-x-x-x-
A-x-x-x-x-
E-x-x-x-x-

Chorus
e---------------------------------|
B---------------------------------|
G------5-5-5---------5-5----------|
D-7-7--5-5-5--7-7-7--5-5-5-5-7----|
A-7-7--3-3-3--7-7-7--3-3-5-5-7----|
E-5-5---------5-5-5------3-3-5----|


Verse
e----------------------------------|
B----------------------------------|
G--------5-5-5---------5-----------|
D---7-7--5-5-5--7-7-7--5--5--7-----|
A---7-7--3-3-3--7-7-7--3--5--7-----|
E---5-5---------5-5-5-----3--5-----|
   PM O  PM- O  PM- O

Pre-chorus
e--------------------------------------------------------5-9b--|
B----------------------------------------------------5-7-------|
G------------------------------------------------4-6-----------|
D-12-12-12-12-12-12-12-12-12-12-12-12-12-10-7-3----------------|
A-12-12-12-12-12-12-12-12-12-12-12-12-12-10-7-3----------------|
E-10-10-10-10-10-10-10-10-10-10-10-10-10-8--5-1----------------|
you know...                                    a 2nd guitar plays
                                               this down an octave

e---------------------------------|
B---------------------------------|
G------5-5-5---------5-5----------|
D-7-7--5-5-5--7-7-7--5-5-5-5-7----|
A-7-7--3-3-3--7-7-7--3-3-5-5-7----|
E-5-5---------5-5-5------3-3-5----|
yeahhhhhhhhh, watch you shine now


Verse
e----------------------------------|
B----------------------------------|
G--------5-5-5---------5-----------|
D---7-7--5-5-5--7-7-7--5--5--7-----|
A---7-7--3-3-3--7-7-7--3--5--7-----|
E---5-5---------5-5-5-----3--5-----|
   PM O  PM- O  PM- O

Pre-chorus
e--------------------------------------------------------5-9b----|
B----------------------------------------------------5-7---------|
G------------------------------------------------4-6-------------|
D-12-12-12-12-12-12-12-12-12-12-12-12-12-10-7-3------------------|
A-12-12-12-12-12-12-12-12-12-12-12-12-12-10-7-3------------------|
E-10-10-10-10-10-10-10-10-10-10-10-10-10-8--5-1------------------|


Chorus
e---------------------------------|
B---------------------------------|
G------5-5-5---------5-5----------|
D-7-7--5-5-5--7-7-7--5-5-5-5-7----|
A-7-7--3-3-3--7-7-7--3-3-5-5-7----|
E-5-5---------5-5-5------3-3-5----|


Bridge w/solo
e-----------------------------------------------------|
B-----------------------------------------------------|
G-------5-5-5-------5-5-5-------5-5-5-------5-5-------|
D-2-2-2-5-5-5-2-2-2-5-5-5-2-2-2-5-5-5-2-2-2-5-5-5-5-7-|
A-2-2-2-3-3-3-2-2-2-3-3-3-2-2-2-3-3-3-2-2-2-3-3-5-5-7-|
E-0-0-0-------0-0-0-------0-0-0-------0-0-0-----3-3-5-|

e----------------------------------------------------|
B----------------------------------------------------|
G-------5-5-5---------5-----------5-5-5---------5----|
D-2-2-2-5-5-5-2-2-2---5--5--2-2-2-5-5-5-2-2-2---5--5-|
A-2-2-2-3-3-3-2-2-2---3--5--2-2-2-3-3-3-2-2-2---3--5-|
E-0-0-0-------0-0-0------3--0-0-0-------0-0-0------3-|

e----
B----
G----
D-2--
A-2--
E-0-- end bridge on an E

I'll tab out the solo later


Verse
e------------------------|
B------------------------|
G-2-2--------0-0---------|
D-2-2----0-2---------0-2-|
A-0-0--0---------0-4-----|
E------------------------|
after the 4th time around, guitar 2 plays this up an octave

Chorus
e---------------------------------|
B---------------------------------|
G------5-5-5---------5-5----------|
D-7-7--5-5-5--7-7-7--5-5-5-5-7----|
A-7-7--3-3-3--7-7-7--3-3-5-5-7----|
E-5-5---------5-5-5------3-3-5----|

Outro
e------------------------------------------------|
B------------------------------------------------|
G------------------------------------------------|
D-12-12-12-12-12-12-12-12-12-12-12-12-12-10-7-3--|
A-12-12-12-12-12-12-12-12-12-12-12-12-12-10-7-3--|
E-10-10-10-10-10-10-10-10-10-10-10-10-10-8--5-1--|
Добавлено: 12.07.2012
Другие материалы по этой песне:
  • Аккорды и текст

Страница создана 27.06.2012
http://primanota.ru/burden-brothers/shine-chords.htm
Привет, Гость.
Предлагаем пройти революционный курс по гитаре.
Подарок от PrimaNota.Ru, забирай!