PrimaNota.ru - самый крупный в мире бесплатный архив песенных текстов, аккордов, табулатур и нот


Burden Brothers - On My Own - таба, видео

Регистрация Запомнить меня
Войти через:  Facebook Google Twitter Vk Yandex Mail.ru

Burden Brothers - On My Own - таба, видео

Печатать
Просмотров: 117
Intro: Guitar 1:
E----------------11b(12)r-----------------12--11\\-----------|    X2
B------------------------12b(14)r--10b(12)R------------------|
G--8b(9)r--11b(13)r----------------------------------*-------|
D-------------------------------------------------*----------|
A------------------------------------------------------------|
E------------------------------------------------------------|

Verse
Guitar 1:
E---9bbbbbbbb(11)rrrrr----|  (slide from here down)
B-------------------------|
G-------------------------|
D-------------------------|
A-------------------------|
E-------------------------|
Only do this in the first verse. In the second verse just play guitar 2's part.

Guitar 2
      B/////-Ebm///- A/////-Abm//-------play--| 4x
E--77777-77777--55555-44444-------------------|
B--77777-77777--55555-44444-------------------|
G--88888-88888--66666-44444-------------------|
A--99999-88888--77777-66666-------------------|
D--99999-66666--77777-66666-------------------|
E--77777--------55555-44444-------------------|

Pre Chorus:
Guitar 2:
E--//--------------------------0--|let ring
B--//--------------------------0--|let ring
G--//--------------------------0--|let ring
D--//--------------------------2--|let ring
A--//446644664467644--22425242-2--|let ring
E--//2222222222222222-00000000-0--|let ring
             Just wave.........my clooud..............we're all on our own now.

 After Chorus thing its just the same riff only with a few repetitions of the last notes

Repeat Pre-Chorus


Bridge1
Guitar 2

Play chords

A////C#////B////////
x6

Guitar 1 its these notes but I play it octaved cuz it sounds AWESOME
E-77777-11111111--14-14-14-14-12-12-12-12-|
B-----------------------------------------|
G-44444-88888-----11-11-11-11-99999-------|
D-----------------------------------------|
A-----------------------------------------|
E-----------------------------------------|

Bridge two
just bass drums and singer


Chorus Ending
Just play Verse Riff if ur guitar 2 and guitar 1 just play that riff but go a little crazy

End on Pre-Chorus Riff


I hope u enjoy this tab its a great song
Добавлено: 01.07.2012
Другие материалы по этой песне:
  • Аккорды и текст

Страница создана 14.05.2012
http://primanota.ru/burden-brothers/on-my-own-chords.htm
Привет, Гость.
Предлагаем пройти революционный курс по гитаре.
Подарок от PrimaNota.Ru, забирай!