PrimaNota.ru - самый крупный в мире бесплатный архив песенных текстов, аккордов, табулатур и нот


Burden Brothers - Liberated - таба, видео

Регистрация Запомнить меня
Войти через:  Facebook Google Twitter Vk Yandex Mail.ru

Burden Brothers - Liberated - таба, видео

Печатать
Просмотров: 110
Burden Brothers - Liberated
Tabbed by: Shawn Klapproth
Tuning: EADGBe (standard)


Intro
  guitar 1
e|----------------------------------------------------------|
B|----------------------------------------------------------|
G|----------------------------------------------------------|
D|-------------------------------------------4-4-4-4-4-4----|
A|-4-4-4-4-4-4-4-4-4-4-4-4-4-4-4-4-4-4-4-2-2-4-4-5-5-5-5-4--|
E|-5-5-5-5-5-5-5-4-4-4-4-5-5-5-5-5-5-5-5-2-2-2-2------------|
 |                                                              x2
 |guitar 2
e|----------------------------------------------------------|
B|-----------------------------2----------------------------|
G|-----------------------------2----------------------------|
D|-----------------------------2----------------------------|
A|-----------------------------0----------------------------|
E|----------------------------------------------------------|


Verse
e|----------------------------------------------------------|
B|----------------------------------------------------------|
G|----------------------------------------------------------|
D|-------------------------------------------4-4-4-4-4-4----|
A|-4-4-4-4-4-4-4-4-4-4-4-4-4-4-4-4-4-4-4-2-2-4-4-5-5-5-5-4--|
E|-5-5-5-5-5-5-5-4-4-4-4-5-5-5-5-5-5-5-5-2-2-2-2------------|
 |P.M. - - - - - - - - - - - - - - - - - - - - - - - - - -
 |
 |
e|-------------------------0-----------------------------0--|
B|-2--------------------------------------------------------|
G|-2---------------------2---------------4---4-4-------2----|
D|-2-------------------------------------4---4-4------------|
A|-0-------------------------------------2---0-2------------|
E|----------------------------------------------------------|


e|----------------------------------------------------------|
B|----------------------------------------------------------|
G|----------------------------------------------------------|
D|-------------------------------------------4-4-4-4-4-4----|
A|-4-4-4-4-4-4-4-4-4-4-4-4-4-4-4-4-4-4-4-2-2-4-4-5-5-5-5-4--|
E|-5-5-5-5-5-5-5-4-4-4-4-5-5-5-5-5-5-5-5-2-2-2-2------------|
 |P.M. - - - - - - - - - - - - - - - - - - - - - - - - - -
 |
 |
e|-------------------------0-----------------------------0--|
B|-------------------------2--------------------------------|
G|-------------------------2-------------4---4-4------------|
D|-------------------------2-------------4---4-4------------|
A|-------------------------0-------------2---0-2------------|
E|----------------------------------------------------------|


e|----------------------------------------------------------|
B|----------------------------------------------------------|
G|----------------------------------------------------------|
D|-------------------------------------------4-4-4-4-4-4----|
A|-4-4-4-4-4-4-4-4-4-4-4-4-4-4-4-4-4-4-4-2-2-4-4-5-5-5-5-4--|
E|-5-5-5-5-5-5-5-4-4-4-4-5-5-5-5-5-5-5-5-2-2-2-2------------|
 |P.M. - - - - - - - - - - - - - - - - - - - - - - - - - -
 |
 |
e|-------------------------0-----------------------------0--|
B|-------------------------2--------------------------------|
G|-------------------------2-------------4---4-4------------|
D|-------------------------2-------------4---4-4------------|
A|-------------------------0-------------2---0-2------------|
E|----------------------------------------------------------|

Pre-chorus
e|-0-------------------------0-----------------------0------|
B|-0-------------------------0-----------------------0--2-0-|
G|-1-------------------------1-----------------------1------|
D|-2-------------------------2-----------------------2------|
A|-2-------------------------2-----------------------2------|
E|-0-------------------------0-----------------------0------|
 | upstroke                  downstroke
 |
 |
e|-0-------------------------0------------------------------|
B|-0-------------------------0------------------------------|
G|-1-------------------------1------------------------------|
D|-2-------------------------2------------------------------|
A|-2-------------------------2------------------------------|
E|-0-------------------------0------------------------------|
   upstroke                  downstroke

Chorus
e|------------------------------------------------------------------|
B|------------------------------------------------------------------|
G|-----------------------------------1-1-1-1-1-1-2/5-7-7-7-7-7-7-7--|
D|-7-7-7-7-7-7-7-9-9-4-4-4-4-4-4-7-7-2-2-2-2-2-2-----7-7-7-7-7-7-7--|
A|-7-7-7-7-7-7-7-9-9-4-4-4-4-4-4-7-7-2-2-2-2-2-2-----5-5-5-5-5-5-5--|
E|-5-5-5-5-5-5-5-7-7-2-2-2-2-2-2-5-5-0-0-0-0-0-0--------------------|
 |
 |
 |
e|------------------------------------------------------------------|
B|------------------------------------------------------------------|
G|-----------------------------------1-1-1-1-1-1-----7-7-7-7-7-7-7--|
D|-7-7-7-7-7-7-7-9-9-4-4-4-4-4-4-7-7-2-2-2-2-2-2-----7-7-7-7-7-7-7--|
A|-7-7-7-7-7-7-7-9-9-4-4-4-4-4-4-7-7-2-2-2-2-2-2-4---5-5-5-5-5-5-5--|
E|-5-5-5-5-5-5-5-7-7-2-2-2-2-2-2-5-5-0-0-0-0-0-0--------------------|

Verse
e|----------------------------------------------------------|
B|----------------------------------------------------------|
G|----------------------------------------------------------|
D|-------------------------------------------4-4-4-4-4-4----|
A|-4-4-4-4-4-4-4-4-4-4-4-4-4-4-4-4-4-4-4-2-2-4-4-5-5-5-5-4--|
E|-5-5-5-5-5-5-5-4-4-4-4-5-5-5-5-5-5-5-5-2-2-2-2------------|
 |                                                              x2
 |
e|----------------------------------------------------------|
B|-----------------------------2----------------------------|
G|-----------------------------2----------------------------|
D|-----------------------------2----------------------------|
A|-----------------------------0----------------------------|
E|----------------------------------------------------------|

e|----------------------------------------------------------|
B|----------------------------------------------------------|
G|----------------------------------------------------------|
D|-------------------------------------------4-4-4-4-4-4----|
A|-4-4-4-4-4-4-4-4-4-4-4-4-4-4-4-4-4-4-4-2-2-4-4-5-5-5-5-4--|
E|-5-5-5-5-5-5-5-4-4-4-4-5-5-5-5-5-5-5-5-2-2-2-2------------|
 |P.M. - - - - - - - - - - - - - - - - - - - - - - - - -
 |
 |
e|-------------------------0-----------------------------0--|
B|-2--------------------------------------------------------|
G|-2---------------------2---------------4---4-4-------2----|
D|-2-------------------------------------4---4-4------------|
A|-0-------------------------------------2---0-2------------|
E|----------------------------------------------------------|


e|----------------------------------------------------------|
B|----------------------------------------------------------|
G|----------------------------------------------------------|
D|-------------------------------------------4-4-4-4-4-4----|
A|-4-4-4-4-4-4-4-4-4-4-4-4-4-4-4-4-4-4-4-2-2-4-4-5-5-5-5-4--|
E|-5-5-5-5-5-5-5-4-4-4-4-5-5-5-5-5-5-5-5-2-2-2-2------------|
 |P.M. - - - - - - - - - - - - - - - - - - - - - - - -
 |
 |
e|-------------------------0-----------------------------0--|
B|-------------------------2--------------------------------|
G|-------------------------2-------------4---4-4------------|
D|-------------------------2-------------4---4-4------------|
A|-------------------------0-------------2---0-2------------|
E|----------------------------------------------------------|


e|----------------------------------------------------------|
B|----------------------------------------------------------|
G|----------------------------------------------------------|
D|-------------------------------------------4-4-4-4-4-4----|
A|-4-4-4-4-4-4-4-4-4-4-4-4-4-4-4-4-4-4-4-2-2-4-4-5-5-5-5-4--|
E|-5-5-5-5-5-5-5-4-4-4-4-5-5-5-5-5-5-5-5-2-2-2-2------------|
 |P.M.- - - - - - - - - - - - - - - - - - - - - - - - - - -
 |
 |
e|-------------------------0-----------------------------0--|
B|-------------------------2--------------------------------|
G|-------------------------2-------------4---4-4------------|
D|-------------------------2-------------4---4-4------------|
A|-------------------------0-------------2---0-2------------|
E|----------------------------------------------------------|

Pre-chorus
e|-0-------------------------0-----------------------0------|
B|-0-------------------------0-----------------------0--2-0-|
G|-1-------------------------1-----------------------1------|
D|-2-------------------------2-----------------------2------|
A|-2-------------------------2-----------------------2------|
E|-0-------------------------0-----------------------0------|
 | upstroke                  downstroke
 |
 |
e|-0-------------------------0------------------------------|
B|-0-------------------------0------------------------------|
G|-1-------------------------1------------------------------|
D|-2-------------------------2------------------------------|
A|-2-------------------------2------------------------------|
E|-0-------------------------0------------------------------|
   upstroke                  downstroke


Chorus
e|------------------------------------------------------------------|
B|------------------------------------------------------------------|
G|-----------------------------------1-1-1-1-1-1-2/5-7-7-7-7-7-7-7--|
D|-7-7-7-7-7-7-7-9-9-4-4-4-4-4-4-7-7-2-2-2-2-2-2-----7-7-7-7-7-7-7--|
A|-7-7-7-7-7-7-7-9-9-4-4-4-4-4-4-7-7-2-2-2-2-2-2-----5-5-5-5-5-5-5--|
E|-5-5-5-5-5-5-5-7-7-2-2-2-2-2-2-5-5-0-0-0-0-0-0--------------------|
 |
 |
 |
e|------------------------------------------------------------------|
B|------------------------------------------------------------------|
G|-----------------------------------1-1-1-1-1-1-----7-7-7-7-7-7-7--|
D|-7-7-7-7-7-7-7-9-9-4-4-4-4-4-4-7-7-2-2-2-2-2-2-----7-7-7-7-7-7-7--|
A|-7-7-7-7-7-7-7-9-9-4-4-4-4-4-4-7-7-2-2-2-2-2-2-4---5-5-5-5-5-5-5--|
E|-5-5-5-5-5-5-5-7-7-2-2-2-2-2-2-5-5-0-0-0-0-0-0--------------------|


Bridge
e|----------------------------------------------------|
B|----------------------------------------------------|
G|-4-4-4-4-4-4-4-4-7-7-7-7-7-7-7-7--------------------|
D|-4-4-4-4-4-4-4-4-7-7-7-7-7-7-7-7-4-4-4-4-4-4-4-4----|
A|-2-2-2-2-2-2-2-2-5-5-5-5-5-5-5-5-4-4-4-4-4-4-4-4----|
E|---------------------------------2-2-2-2-2-2-2-2----|
 |
 |
 |
e|----------------------------------------------------|
B|----------------------------------------------------|
G|-4-------------4\7-------------7\11-----------------|
D|----------------------------------------------------|
A|----------------------------------------------------|
E|----------------------------------------------------|

e|-----------------------------------------------------|
B|-----------------------------------------------------|
G|-4-4-4-4-4-4-4-4-7-7-7-7-7-7-7-7-9---------------9---|
D|-4-4-4-4-4-4-4-4-7-7-7-7-7-7-7-7-9---------------9---|
A|-2-2-2-2-2-2-2-2-5-5-5-5-5-5-5-5-7---------------7---|
E|-----------------------------------------------------|
 |
 |
 |
e|-------------------------------------------------0---|
B|-------------------------------------------------0---|
G|-4-------------4\7-------------------------------1---|
D|-------------------------------------------------2---|
A|-------------------------------------------------2---|
E|-------------------------------------------------0---|
                                                   upstroke


Chorus
e|------------------------------------------------------------------|
B|------------------------------------------------------------------|
G|-----------------------------------1-1-1-1-1-1-2/5-7-7-7-7-7-7-7--|
D|-7-7-7-7-7-7-7-9-9-4-4-4-4-4-4-7-7-2-2-2-2-2-2-----7-7-7-7-7-7-7--|
A|-7-7-7-7-7-7-7-9-9-4-4-4-4-4-4-7-7-2-2-2-2-2-2-----5-5-5-5-5-5-5--|
E|-5-5-5-5-5-5-5-7-7-2-2-2-2-2-2-5-5-0-0-0-0-0-0--------------------|
 |
 |
 |
e|------------------------------------------------------------------|
B|------------------------------------------------------------------|
G|-----------------------------------1-1-1-1-1-1-----7-7-7-7-7-7-7--|
D|-7-7-7-7-7-7-7-9-9-4-4-4-4-4-4-7-7-2-2-2-2-2-2-----7-7-7-7-7-7-7--|
A|-7-7-7-7-7-7-7-9-9-4-4-4-4-4-4-7-7-2-2-2-2-2-2-4---5-5-5-5-5-5-5--|
E|-5-5-5-5-5-5-5-7-7-2-2-2-2-2-2-5-5-0-0-0-0-0-0--------------------|


Solo

e----------12--12--12---------12--12--12---------12--12--12-----|
B-\14/---14--14--14--\14/---14--14--14--\14/---14--14--14---9b--|
G---------------------------------------------------------------|
D---------------------------------------------------------------|
A---------------------------------------------------------------|
E---------------------------------------------------------------|


Outro Chorus

e|--------------------------------------------------------------|
B|--------------------------------------------------------------|
G|-------------------------------1-1-1-1-1-1-2/5-7-7-7-7-7-7-7--|
D|-7-7-7-7-7-7-7-9/4-4-4-4-4-4-7/2-2-2-2-2-2-----7-7-7-7-7-7-7--|
A|-7-7-7-7-7-7-7-9/4-4-4-4-4-4-7/2-2-2-2-2-2-----5-5-5-5-5-5-5--|
E|-5-5-5-5-5-5-5-7/2-2-2-2-2-2-5-0-0-0-0-0-0--------------------|
 |
 |
 |
e|--------------------------------------------------------------|
B|--------------------------------------------------------------|
G|-------------------------------1-1-1-1-1-1-----7-7-7-7-7-7-7--|
D|-7-7-7-7-7-7-7-9/4-4-4-4-4-4-7/2-2-2-2-2-2-----7-7-7-7-7-7-7--|
A|-7-7-7-7-7-7-7-9/4-4-4-4-4-4-7/2-2-2-2-2-2-4---5-5-5-5-5-5-5--|
E|-5-5-5-5-5-5-5-7/2-2-2-2-2-2-5-0-0-0-0-0-0--------------------|
Добавлено: 02.03.2012
Другие материалы по этой песне:
  • Аккорды и текст

Страница создана 02.03.2012
http://primanota.ru/burden-brothers/liberated-chords.htm
Привет, Гость.
Предлагаем пройти революционный курс по гитаре.
Подарок от PrimaNota.Ru, забирай!