PrimaNota.ru - самый крупный в мире бесплатный архив песенных текстов, аккордов, табулатур и нот


Buono - Zassou No Uta - аккорды и текст, видео

Регистрация Запомнить меня
Войти через:  Facebook Google Twitter Vk Yandex Mail.ru

Buono - Zassou No Uta - аккорды и текст, видео

Печатать
Просмотров: 142
Zassou No Uta
Buono
"zassou no uta"
by Buono!
Tabbed by manOutofTime

D#thing x698xx

E5 E5  G5 G5
haihaihai!
A5 A5
hajime youze!
E5 E5  G5 G5
haihaihai!
A5 A5
buchi kamau se!
E5 E5  G5 G5
haihaihai!
A5 A5
yume miten jou ne!
E5 E5  G5 G5
haihaihai!
A5 A5
agatte kouze

E5    B5       C#5
zassa wo mitai na
     A5
oretachi no ikizama wo
E5    B5         C#5
waraitai yatsura ga
      A5
itara waraeba ii

E5    B5            C#5
onaji koto nanka shitakunai
     A5                 E5
hito to onaji de arui mishinjinai
   B5              A
yatte minna chigau no ni

e-555-4-5-4-5--4--|
B-555-5-5-5-5--5--|

C#m B    A        Ab      C#m
nan do demo komarete yarunda
C#m B    A
nan do demo kakotsuken de manma de ii jan
B
rikanze de shishi umade

     E5     D#thing   C#5     B5        A5        Ab5
kankan reidemo doshaburi amedemo fubuki no yoru demo
     A5            B5
tauretatte okiagareru
      E       D#thing   xxC#m xxC#m
fumarete fumarete fumarete
      A5A5A5  G#5G#5G#5 C#m
motto tsuyoku na ru n   da
C#m  B         A
KEEP YOUR HEAD UP
    B
amaeten jane

E5 E5  G5 G5
haihaihai!
A5 A5
hajime youze!
E5 E5  G5 G5
haihaihai!
A5 A5
buchi kamau se!
E5 E5  G5 G5
haihaihai!
A5 A5
yume miten jou ne!

e-7--7--7--7----|
B--0--0--0------|

E5    B5       C#5
namae wo motanai
     A5
michi wo tanokusa mitai ni
E5    B5       C#5
dareni mo shirarete
     xxA5 xxA5
inai kibun wo doudai


E5    B5            C#5
ii wakeshiteru himawanai
     A5                 E5
ochikonderu sonna bai janai
   B5              A
sou sa jidai botobaru yo

e-555-4-5-4-5--4--|
B-555-5-5-5-5--5--|

C#m B    A        Ab      C#m
ikiteru dakede kiseki daze
C#m B    A
oretachi boroboro ni natta de ii jan
B
rouru nante mada mada

      E5         D#thing  C#5      B5       A5         Ab5
ishigoro michi demo senro no wakidemo hodou no hashi demo
    A5             B5
netto hayashite areba ii
      E5              D#thing   xxC#5 xxC#5
kerarete kerarete kerarete
        A5A5A5  G#5G#5G#5 C#m
nani ka mitsuke da su n   da
C#m B      A
YOU CAN DO IT
     B
akiramen jane

Solo
------------------------------------------------------|----------------------|
------------------------------------------------------|----------------------|
------------------------------------------------------|----------------------|
-9b11-9b11v---9b11-9b11v---9b11-9-----------9---------|-9p7---9p7----9p7-----|
----------------------------------12-9-12-9---12----9-|-----9-----9------9---|
------------------------------------------------------|----------------------|

-----------|---------------------------------------------------10v--|--------|
-----------|-002003004005006007008009001000110012001300--10-12------|--------|
-----------|--------------------------------------------------------|--------|
-9p7---7-9-|--------------------------------------------------------|--------|
-----9-----|--------------------------------------------------------|--------|
-----------|--------------------------------------------------------|--------|

      E5         D#thing C#5     B5      A5      Ab5
yume mite yume mite waratte waratte nayande nayande
         A5            B5
namida nagashita mo iinda

       E5        D#thing C#5     B5       A5       Ab5
buchuu de buchuu de fuan de fuan de saken de saken de
        A5             B5
motome tsuzukete yarou ze

     E5      D#thing  C#5     B5        A5        Ab5
kankan reidemo doshaburi amedemo fubuki no yoru demo
     A5            B5
tauretatte okiagareru
      E5      D#thing   xxC#m xxC#m
fumarete fumarete fumarete
      A5A5A5  G#5G#5G#5 C#m
motto tsuyoku na ru n   da
C#m  B         A
KEEP YOUR HEAD UP
    B
amaeten jane

E5 E5  G5 G5
haihaihai!
A5 A5
hajime youze!
E5 E5  G5 G5
haihaihai!
A5 A5
buchi kamau se!
E5 E5  G5 G5
haihaihai!
A5 A5
yume miten jou ne!
E5 E5  G5 G5
haihaihai!
A5 A5
agatte kouze
E5
PEACE!
Добавлено: 14.06.2012
Другие материалы по этой песне:
  • Аккорды и текст

Страница создана 14.06.2012
http://primanota.ru/buono/zassou-no-uta-chords.htm
Привет, Гость.
Предлагаем пройти революционный курс по гитаре.
Подарок от PrimaNota.Ru, забирай!