PrimaNota.ru - самый крупный в мире бесплатный архив песенных текстов, аккордов, табулатур и нот


Buono - Youre My Friend - таба, видео

Регистрация Запомнить меня
Войти через:  Facebook Google Twitter Vk Yandex Mail.ru

Buono - Youre My Friend - таба, видео

Печатать
Просмотров: 116
Уроки эстрадного вокала в Санкт-Петербурге
Авторы музыки: AKIRASTAR
Авторы текста: 岩里祐穂
You're My Friend
by Buono!
tabbed by manOutOfTime
key: G

INTRO
-------------|--------------------|-------------------|-----------------------|
-8b10------8-|---8-8b10------7vv--|-------------------|-----------------------|
-------------|-7------------------|--------7----------|-----------------------|
-------------|--------------------|-7h9-10---10-9-7h9-|-----------------------|
-------------|--------------------|-------------------|-----------------------|
-------------|--------------------|-------------------|-----------------------|
 G                 Bm    Bm Bbm    Am       D


-------------|---------------7vv--|-5h7-8-7-5---------|-------------------|---|
-8b10------8-|---8-8b10-----------|-----------8-7-8---|---------6h8-6-8vv-|---|
-------------|-7------------------|-------------------|-----5h7-----------|---|
-------------|--------------------|-------------------|-5h7---------------|---|
-------------|--------------------|-------------------|-------------------|---|
-------------|--------------------|-------------------|-------------------|---|
 G                 Bm     Bm Bbm      Am       D       G       C     G

G
Dakedo dakedo dakedo
  Bm       Bm      Bbm Am     D     G      Am G
Jibun no kimochi wo shiranakya yokatta you're my friend
G
Konna konna konna
  Bm      Bm    Bbm  Am            D       G      Am G
Omoi wo dare ka ni kiite hoshii no ni you're my friend

C        G           Em      F#m    G
Itsumo soba ni ite kimi no zenbu shitteru kuse ni
C              G
Kore ijou chikazukenai yo
  G                        C         Bm D
Kimi to watashi wa datte tomodachi daka ra

C      D        Bm      Em C        D         Bm       Em
Ookina koe de sakenda koto iki wo kirashite hashitta koto
Em         Am        D         Em     Am
Kono machi de deatta isshoni sugoshiteru
     Am          Bm       C  Am
Haru mo natsu mo aki mo fuyu mo
C       D         Bm      Em   C        D        Bm      Em
Yuuyake ga mabushikatta koto negatte mo todoka nakatta koto
Em     Am          D      Em      Am      C       Am      Bm
Itsudatte daiji na omoide no naka ni kimi no egao utsutterunda
C          Am     G
I love you day by day

INTRO

G
Moshimo moshimo moshimo
   Bm       Bm    Bbm  Am      D        G      Am G
Shiranai doushi nara suki to ieta no ni you're my friend
G
Nande nande nande
  Bm        Bm  Bbm  Am            D      G      Am G
Tomodachi nanka ni natte shimatta no you're my friend

C         G          Em      F#m    G
Suki de daisuki de namida ga dete tomaranai kedo
C                G
Kimi wo ne ushinaitakunai
  G                       C       Bm D
Soba ni irareru nara kono mama de ii yo

C        D        Bm    Em C       D         Bm      Em
Chiisana koe de naita toki hitorikiri samishikatta toki
Em        Am           D         Em     Am
Dare yori mo yasashiku shinpaishite kureta
    Am       Bm          C  Am
Ichiban taisetsu na hito nanda
C       D           Bm   Em C        D      Bm     Em
Moshi kimochi ga tsuujitara moshimo omoi ga todoitara
Em     Am         D         Em    Am
Miageteru sora ya nandemo nai kotoba
      C              Am Bm
Motto motto kagayaku no ni
C          Am     G
I love you day by day

SOLO
-------------------------------------------7----------------|-----------------|
-----------------------3--------2/8v-10-7v----6/8v----------|-----------------|
---------0v--2-0-2/4v----4\2v------------------------/4-2-0-|-----------------|
-----0h2----------------------------------------------------|-----------------|
-0h2--------------------------------------------------------|-----------------|
------------------------------------------------------------|-----------------|

-----------------------10----------------------------------------3/8-10v------|
---------8v--10-8-8/12----10b11--8h10p8\------8---8---8---8---8---------------|
-----7h9----------------------------------6/9---9---9---9----9----------------|
-7h9--------------------------------------------------------------------------|
------------------------------------------------------------------------------|
------------------------------------------------------------------------------|

-/17-19---------------10-10-10-10-10------------------------------------------|
---------17p16p15vv---10-10-10-10-10------------------------------------------|
------------------------------------------------------------------------------|
------------------------------------------------------------------------------|
------------------------------------------------------------------------------|
------------------------------------------------------------------------------|

C      D        Bm      Em C        D         Bm       Em
Ookina koe de sakenda koto iki wo kirashite hashitte koto
Em         Am        D         Em     Am
Kono machi de deatta isshoni sugoshiteru
     Am          Bm       C  Am
Haru mo natsu mo aki mo fuyu mo
C       D         Bm      Em   C        D         Bm     Em
Yuuyake ga mabushikatta koto negatte mo todoka nakatta koto
Em     Am          D      Em      Am      C       Am        Bm
Itsudatte daiji na omoide no naka ni kimi no egao utsutterunda
C          Am     G
I love you day by day

INTRO
Добавлено: 03.07.2013
Другие материалы по этой песне:
  • Аккорды и текст

Страница создана 03.07.2013
http://primanota.ru/buono/youre-my-friend-chords.htm
Привет, Гость.
Предлагаем пройти революционный курс по гитаре.
Подарок от PrimaNota.Ru, забирай!