PrimaNota.ru - самый крупный в мире бесплатный архив песенных текстов, аккордов, табулатур и нот


Buono - Winter Story - таба, видео

Регистрация Запомнить меня
Войти через:  Facebook Google Twitter Vk Yandex Mail.ru

Buono - Winter Story - таба, видео

Печатать
Просмотров: 113
Авторы музыки: AKIRASTAR
Авторы текста: 川上夏季
Winter Story
by Buono!
tabbed by manOutOfTime

*Intro*
-------------------------6----------------------|----------------------------|
-------------------------8----------------------|----------------------------|
-888---------------------8----------------------|----------------------------|
-888---------------------8----------------88888-|----------------------------|
-666-6666--------------5-6666-------------88888-|----------------------------|
----------6666-4444-66--------6666-4444-6666666-|----------------------------|


--------------|---------911--|-----------------------------------------------|
------9-10----|----91012-----|-----------------------------------------------|
-9-11---------|-911----------|-----------------------------------------------|
--------------|--------------|-----------------------------------------------|
--------------|--------------|-----------------------------------------------|
-----------x7-|--------------|-----------------------------------------------|


*Verse1*
-||-----------|------------x2||----------------|-------------|---------------|
-||-----------|--------------||----------------|-------------|---------9-8---|
-||-8---------|-----------10-||-8--77---5-5-33-|-------------|-----8-10---10-|
-||-8---88----|--6-6---88-10-||-8--77---5-5-33-|-86---6---68-|-8-10----------|
-||-6---88----|--6-6---88--8-||-6--55---3-3-11-|-86---6---68-|---------------|
-||-----66----|--4-4---66----||----------------|-64---4---46-|---------------|
ima nani shiteru no? gofun de oide yo
datte machi ni matta fuyuyasumi

*Verse2*
-||-----------|------------x2||----------------|-------------|---------------|
-||-----------|--------------||----------------|-------------|---------------|
-||-8---------|-----------10-||-8--77---5-5-33-|-----------8-|---------------|
-||-8---88----|--6-6---88-10-||-8--77---5-5-33-|-86---68---8-|--7b9r7p6------|
-||-6---88----|--6-6---88-8--||-6--55---3-3-11-|-86---68---6-|---------------|
-||-----66----|--4-4---66----||----------------|-64---46-----|---------------|
toshi ga akeru made mainichi aou yo
datte sukejuuru wa mou gisshiri

*Bridge*
--------------|---------------|----------------|-------------|---------------|
--------------|---------------|----------------|-------------|---------------|
--------------|-88------------|----------------|-xx--8--8888-|---------------|
-66----88-----|-88-----1010---|-66-------88----|-xx--8--8888-|---------------|
-66----88-----|-66-----1010---|-66-------88----|-xx--6--6666-|---------------|
-44----66-----|--------88-----|-44-------66----|-------------|---------------|
kotoshi no owari to rainen no hajimari

--------------|---------------|----------------|-------------|---------------|
--------------|---------------|----------------|-------------|---------------|
--------------|---------------|----------------|-8-----------|---------------|
-66----88-----|-55----1010----|-66-------88----|-8-----------|---------------|
-66----88-----|-55----1010----|-66-------88----|-6-----------|---------------|
-44----66-----|-33-----8-8----|-44-------66----|-------------|---------------|
issho ni iretara suteki ja nai?

*Chorus1* x2
-6------------|---------------|-3--------------|-------------|---------------|
-8------------|---------------|-4--------------|-------------|---------------|
-8------------|----------8--7-|-5--------------|-------------|---------------|
-8------------|----------8--7-|-5--------------|-------10--8-|---------------|
-6------------|----------6--5-|-3--------------|-------10--8-|---------------|
-6------------|---------------|-3--------------|-------8---6-|---------------|
 I wish merry Xmas for you      and a happy new year for you


-4------------|-4-------------||-1st time-----||-2nd time--6-|---------------|
-4------------|-4-------------||--------------||-----------8-|---------------|
-5------------|-4-------------||--------------||-----------8-|---------------|
-6------------|-6-------------||-------888----||-----------8-|---------------|
-6------------|-6-------------||-------888----||-----------6-|---------------|
-4------------|-4-------------||-------666----||-----------6-|---------------|
ninen goshi de daisuki da yo no kimochi

I wish merry Xmas with you
and a happy new year with you
kimi to tsukuru futari no winter story

--------------|---------911--|----------------------------------------------|
------9-10----|----91012-----|----------------------------------------------|
-9-11---------|-911----------|----------------------------------------------|
--------------|--------------|----------------------------------------------|
--------------|--------------|----------------------------------------------|
------------x7|--------------|----------------------------------------------|

*Verse3*
----------------------------||---------------------|-------------------------|
----8----6----4----6----3h4-||----8----6----4----4-|----3h4----8----8----8---|
-88---88---88---88---88-----||-88---88---88---88---|-88-----88---88---88-----|
----------------------------||---------------------|-------------------------|
----------------------------||---------------------|-------------------------|
-------------------------x2-||---------------------|-------------------------|
 santa kuroosu wa honto ni iru nda    sore wa kimi dattari boku dattari


-|--------------|------------|-----------------------------------------------|
-|--------------|------------|-----------------------------------------------|
-|--------------|------------|-----------------------------------------------|
-|-8---8---8----|------------|-----------------------------------------------|
-|-8---8---8----|------------|-----------------------------------------------|
-|-6---6---6----|------------|-----------------------------------------------|

*Verse2*
taisetsu na hito ni waratte hoshikute
sore wa ima dake no koto ja nakute

*Solo*
-------------------|-------------------|---------6vvvv-|-8-11--8---11--8--11-|
---------------6---|---------------6-8-|-9---8-6-------|--------11------11---|
---------5-7h8---8-|---------5-7h8-----|---------------|---------------------|
-6h8-8-8-----------|-6h8-8-8-----------|---------------|---------------------|
-------------------|-------------------|---------------|---------------------|
-------------------|-------------------|---------------|---------------------|

-11p10p8-11p10p8-11p10p8-|------------------------------------------|--------|
-------------------------|-10----10-----12h13vv---------------------|--------|
-------------------------|-12b15-12b15-----------12b15-8h10b11p8vvv-|-5-88-5-|
-------------------------|------------------------------------------|--------|
-------------------------|------------------------------------------|--------|
-------------------------|------------------------------------------|--------|

--------------|-----------15------------|--------------|----------|----------|
--------------|----16--16-----18-16vvvv-|--------------|----------|----------|
-8--/13-12----|-/15--15-----15----------|--------------|----------|----------|
-----------13-|-------------------------|--------------|----------|----------|
--------------|-------------------------|--------------|----------|----------|
--------------|-------------------------|--------------|----------|----------|

*Bridge*
kotoshi mo iroiro arimashita kedo mo
rainen mo zutto tonari ni ite

*Chorus1*
I wish merry Xmas for you
and a happy new year for you
ninen goshi no arigatou yoroshiku

*Chorus2* -key change
-7------------|------------|-4-----------|-------------|---------------------|
-9------------|------------|-5-----------|-------------|---------------------|
-9------------|-------9--8-|-6-----------|-------------|---------------------|
-9------------|-------9--8-|-6-----------|-------11--9-|---------------------|
-7------------|-------7--6-|-4-----------|-------11--9-|---------------------|
-7------------|------------|-4-----------|-------9---7-|---------------------|
 I wish merry Xmas for you   and a happy new year for you

-5-----------|-5-----------|-1st time---||-2nd time-7--|---------------------|
-5-----------|-5-----------|------------||----------9--|---------------------|
-6-----------|-5-----------|------------||----------9--|---------------------|
-7-----------|-7-----------|--------999-||----------9--|---------------------|
-7-----------|-7-----------|--------999-||----------7--|---------------------|
-5-----------|-5-----------|--------777-||----------7--|---------------------|
 ninen goshi de daisuki da yo no kimochi

*Chorus2*
I wish merry Xmas with you
and a happy new year with you
kitakaze ni mo kokoro wa pokkapoka da yo

------------|-----------|------------|------------|---------911-|------------|
------9-10--|------9-10-|-12-10-9----|------9-10--|----91012----|------------|
-9-11-------|-9-11------|---------11-|-9-11-------|-911---------|------------|
------------|-----------|------------|------------|-------------|------------|
------------|-----------|------------|------------|-------------|------------|
---------x7-|-----------|------------|----------x7|-------------|------------|


-7-----7----|-7----7----|-7----------|---------------------------------------|
-9-----7----|-9----7----|-9----------|---------------------------------------|
-9-----8----|-9----8----|-9----------|---------------------------------------|
-9-----9----|-9----9----|-9----------|---------------------------------------|
-7-----9----|-7----9----|-7----------|---------------------------------------|
-7-----7----|-7----7----|-7----------|---------------------------------------|
Добавлено: 23.05.2012
Другие материалы по этой песне:
  • Аккорды и текст

Страница создана 23.05.2012
http://primanota.ru/buono/winter-story-chords.htm
Привет, Гость.
Предлагаем пройти революционный курс по гитаре.
Подарок от PrimaNota.Ru, забирай!