PrimaNota.ru - самый крупный в мире бесплатный архив песенных текстов, аккордов, табулатур и нот


Buono - Warp - таба, видео

Регистрация Запомнить меня
Войти через:  Facebook Google Twitter Vk Yandex Mail.ru

Buono - Warp - таба, видео

Печатать
Просмотров: 81
Warp!
by Buono
tabbed by manOutOfTime

INTRO
------------------------|---------------|-------------1-|---------------|-----|
-------------------4--6-|-2-1-2-4-2-1-2-|-2-1-2-4-2-4---|-2-1-2-4-2-1-2-|-----|
-3--6--5--6--3--6-------|---------------|---------------|---------------|-----|
------------------------|---------------|---------------|---------------|-----|
------------------------|---------------|---------------|---------------|-----|
------------------------|---------------|---------------|---------------|-----|
C#5    G#5     F#5        C#5    G#5      F#5              C#5    G#5

----------1--|----------------------------------------------------------------|
----2--4-----|----------------------------------------------------------------|
-3-----------|----------------------------------------------------------------|
-------------|----------------------------------------------------------------|
-------------|----------------------------------------------------------------|
-------------|----------------------------------------------------------------|
F#5


C#5         G#5        F#5
honjitsu no tenkou wa kumori nochi kaisei nari
C#5         G#5        F#5
OORU KURIA junbi wa OK
C#5         G#5        F#5
maarui mado kara chiheisen ga mieteru yo
C#5         G#5        F#5
chotto soko made wo dekake shiyou

C#5

     F#5  G#5    F5     Bb5
SUTEESHON kara hibiku KAUNTODAUN de
C#5       F#5           G#5
sore jaa ikou ka youi wa ii?

C#5  G#5 Bb5  F#5
gingakei no hate sae mo isshun de tsukeru desho
C#5  G#5 F#5                G#5
HAIPAA de WANDAA na TORIPPU (Here we go yeah!!)
C#5  G#5 Bb5  F#5
hikari no SUPIIDO mo karuku koerareru desho
C#5  G#5 F#5
shikkari tsukamattete WAAPU!
G#5
tobashiteku kara

INTRO

C#5         G#5        F#5
moshi suki ni nattara ANDOROMEDA mo sugu soko
C#5         G#5        F#5
nan kounen datte kankei nai yo
C#5         G#5        F#5
aoi hoshi no hito yappari miryoku teki kamo
C#5         G#5        F#5
SUPEESU opera akogarechau

C#5

     F#5  G#5    F5     Bb5
nante itteru uchi ni sorosoro jikan da
C#5       F#5           G#5
sore jaa tobou ka tsuite koreru?

C#5  G#5 Bb5  F#5
kaseijin ni te wo futte dosei no wa wo kugutte
C#5  G#5 F#5                G#5
RISUKII de RABURII na RANDEBUU (C'mon, baby!)
C#5  G#5 Bb5  F#5
amanogawa no mukou kakenukete ikeru desho
C#5  G#5 F#5
aitai to omottara WAAPU!
G#5
itsudemo aeru

SOLO
-/999\-/777\-/666-5-55-------|---------------|-11-9-8--1111-9-8-|-------------|
-----------------------------|-1------11-----|------------------|-------------|
-----------------------------|---3-1-----3-1-|------------------|-------------|
-----------------------------|---------------|------------------|-------------|
-----------------------------|---------------|------------------|-------------|
--------------------------x4-|---------------|------------------|-------------|


-14-13-11--1414-13-11--|-20-18-16--2020-18-16-18-20-----|---------------------|
-----------------------|--------------------------------|---------------------|
-----------------------|--------------------------------|---------------------|
-----------------------|--------------------------------|---------------------|
-----------------------|--------------------------------|---------------------|
-----------------------|--------------------------------|---------------------|

C#5  G#5 Bb5  F#5
gingakei no hate made mo oikakete kureru desho
C#5  G#5 F#5                G#5
HAIPAA de WANDAA na TORIPPU (here we go!)
C#5  G#5 Bb5  F#5
kaseijin ni te wo futte dosei no wa wo kugutte
C#5  G#5 F#5
RISUKII de RABURII na RANDEBUU (C'mon, baby!)
C#5  G#5 Bb5  F#5
hikari no SUPIIDO mo karuku koetekeru desho
C#5  G#5 F#5
shikkari tsukamaetete WAAPU!
G#5
tobashiteku kara

INTRO

ends with:
----------1--|----------------------------------------------------------------|
----2--4-----|-2-------------------//-----------------------------------------|
-3-----------|----------------------------------------------------------------|
-------------|----------------------------------------------------------------|
-------------|----------------------------------------------------------------|
-------------|----------------------------------------------------------------|
F#5            C#5
Добавлено: 21.06.2013
Другие материалы по этой песне:
  • Аккорды и текст

Страница создана 21.06.2013
http://primanota.ru/buono/warp-chords.htm
Привет, Гость.
Предлагаем пройти революционный курс по гитаре.
Подарок от PrimaNota.Ru, забирай!