PrimaNota.ru - самый крупный в мире бесплатный архив песенных текстов, аккордов, табулатур и нот


Buono - Urahara - таба, видео

Регистрация Запомнить меня
Войти через:  Facebook Google Twitter Vk Yandex Mail.ru

Buono - Urahara - таба, видео

Печатать
Просмотров: 164
Buono! - Urahara
Tabbed by manOutOfTime (neil_willey@hotmail.com)

Intro
Bm
A
x2

Bm	         A
kimi wa nanni mo kizuitenai kedo
Bm		 A
kimi wa nanni mo kinishitenai kedo

 E          A       F#m       Bm
atashi igai no Hito wo suki nara
   G                       A
hontou no kimochi nanka shiritakunain da yo ne

         Bm
soredemo aitakute setsunakute
         A
setsunai kurai koishikute
         Bm
soredemo aitakute ienakute
      A
ienai kurai kurushikute
         A           E             Bm
anata wa yuujuufudan no mama de ii yo
           A           E              Bm
sorenaraba yuujuufudan no mama de ite yo

-14-------14-------14----14-----------|-12-------12-------12----12--||-------|
----15-------15-------15-----15-16-18-|----13-------13-------13-----||-------|
-------14-------14--------------------|-------12-------12-----------||-------|
--------------------------------------|-----------------------------||-------|
--------------------------------------|-----------------------------||-------|
--------------------------------------|-----------------------------||-------|
Riff1                                                         x2
-|----------|-----------|----------------------------------------------------|
-|-13b14r13-|-13tr14v---|----------------------------------------------------|
-|----------|-----------|----------------------------------------------------|
-|----------|-----------|----------------------------------------------------|
-|----------|-----------|----------------------------------------------------|
-|----------|-----------|----------------------------------------------------|
  1st end   2nd

Bm                   A
amai Furu-tsu no you ni Kisu shitai
Bm                  A
akai Sui-tsu no you ni toke aitai
---------------------|------------------|-------------------------------------|
-----------12--------|---------10-------|-------------------------------------|
------11------11-----|-----9------9-----|-------------------------------------|
----9----9-------9---|---7---7------7---|-------------------------------------|
--9----------------9-|-7--------------7-|-------------------------------------|
---------------------|------------------|-------------------------------------|


E               A     F#m   Bm
hogoshita shashin hisokana oma mori
  G                     A
kimi no sonzai subete hitorijimeshitai dake

CHORUS
         Bm
soredemo aitakute nakitakute
        A
nakitai kuse ni tsuyogatte
         Bm
soredemo aitakute itoshikute
 	A
itoshii kuse ni nigetakute
          A         E            Bm
futari ni yuujou nante iranai no ni

-----------------------|-----------------------------------------------------|
---------17-17-15------|-----------------------------------------------------|
-/17-17-----------15---|-----------------------------------------------------|
----------------------|------------------------------------------------------|
-----------------------|-----------------------------------------------------|
-----------------------|-----------------------------------------------------|
          A         E            Bm
kore ijou yuujou nante iranai no ni

SOLO

------------||-----/19-------------------------------------------|------------|
-9-9--9---9-||--x--/19--19-18-17----17------15----14----12----10-|-/19-18-17--|
--------9---||--x----------------19------18----16----14----12----|------------|
------------||--x------------------------------------------------|------------|
------------||---------------------------------------------------|------------|
------------||---------------------------------------------------|------------|


-17--16-15-14-13-12----------|----------------19--19b-19b-19b----------------|
--------------------16-15-14-|-15---17---19---19--------------22-22-22-19-19-|
-----------------------------|-16---18---18----------------------------19-19-|
-----------------------------|-----------------------------------------------|
-----------------------------|-----------------------------------------------|
-----------------------------|-----------------------------------------------|

------19---18/19----------------------19tr-20tr-19tr-21tr-19tr-22tr-19tr-|
18/19-19---18/19--------19tr22tr-19tr------------------------------------|
18/19-19---18/19---------------------------------------------------------|
-------------------------------------------------------------------------|
-------------------------------------------------------------------------|
-------------------------------------------------------------------------|

22brbr----22b----22-------------------------------------|-----------------|
-------22-----22----19/22--\----x-x-x---x-x-x-x---x-x-x-|-----------------|
--------------------------------x-x-x---x-x-x-x---x-x-x-|-----------------|
--------------------------------x-x-x---x-x-x-x---x-x-x-|-----------------|
--------------------------------------------------------|-----------------|
--------------------------------------------------------|-----------------|

         Bm
soredemo aitakute setsunakute
	 A
setsunai kurai koishikute
	 Bm
soredemo aitakute ienakute
      A
ienai kurai kurushikute

         Bm
soredemo aitakute nakitakute
        A
nakitai kuse ni tsuyogatte
         Bm
soredemo aitakute itoshikute
        A
itoshii kuse ni nigetakute
         A              E          Bm
anata wa yuujuufudan no mama de ii yo
           A              E           Bm
sorenaraba yuujuufudan no mama de ite yo
Добавлено: 30.04.2012
Другие материалы по этой песне:
  • Аккорды и текст

Страница создана 30.04.2012
http://primanota.ru/buono/urahara-chords.htm
Привет, Гость.
Предлагаем пройти революционный курс по гитаре.
Подарок от PrimaNota.Ru, забирай!