PrimaNota.ru - самый крупный в мире бесплатный архив песенных текстов, аккордов, табулатур и нот


Buono - Shoushitsuten - таба, видео

Регистрация Запомнить меня
Войти через:  Facebook Google Twitter Vk Yandex Mail.ru

Buono - Shoushitsuten - таба, видео

Печатать
Просмотров: 89
Shoushitsuten -Vanishing Point-
by Buono!
tabbed by manOutOfTime
Key: F#m

Intro:
---------12--16---12---------19-----------------------------------------------|
----9-10---------------17h19--------------------------------------------------|
-11---------------------------------------------------------------------------|
------------------------------------------------------------------------------|
------------------------------------------------------------------------------|
------------------------------------------------------------------------------|

       F#m        E                C#m  F#m
kotoba ni shitara kowaresou de kowakute
    Bm     D    E            C#m    F#m
itsumo fuzakeau koto shika dekinakatta
      F#m      E                  C#m       A
ano toki boku ni sukoshi dake yuuki ga areba
  F#m       A        F#sus4   F#
unmei wa kawatteita no      kana

F#m         E
doushite darou
     C#m             F#m        Bm
zutto kono mama bokura wa kawaranai
    C#     C#m F#m       A
mujaki ni om otte ita yo
F#m         E
tabun futari no
         C#m            F#m   F#    Bm
kyori wa chikakute dakedo doko made itte mo
      D    C#    E
zutto heikousen de

       F#m        E                C#m  F#m
haruka ni tooku tsuzuku asu no doko ka de
    Bm     D    E            C#m    F#m
itsuka kasanaru basho ga aru to shinjiteta
      F#m       E                  C#m       A
sonna ni muboubi na kao wo saretara boku wa
   F#m      A        F#sus4   F#
dousureba ii ka wakaranai yo

SOLO 1:
------------------------12-|--------------|--------------|--------------------|
----12b14---12-10-12b13----|-12brbrb-9-10-|-12-----------|--------------------|
-11------------------------|--------------|----11------9-|--------------------|
---------------------------|--------------|-------9h11---|-9vvv--7-9p7---9-7--|
---------------------------|--------------|--------------|-------------9------|
---------------------------|--------------|--------------|--------------------|
 F#m                          A              B              F#m

------------------|-------------------9b10-12--/14-|-16b17---r16-14-12b14-----|
------------------|--------------10----------------|--------------------------|
-------6-9--------|----9vv--9h11-------------------|--------------------------|
---7-9------9-----|-11-----------------------------|--------------------------|
-9-------------9--|--------------------------------|--------------------------|
------------------|--------------------------------|--------------------------|
                    F#m                               A

-12-9-12b14-|-12b14-r12-12b14rbrbrb-12-9--8b9----7-|-7-----------|------------|
------------|---------------------------------10---|-10b12---r10-|------------|
------------|--------------------------------------|-------------|------------|
------------|--------------------------------------|-------------|------------|
------------|--------------------------------------|-------------|------------|
------------|--------------------------------------|-------------|------------|
              B                                      F#

F#m         E
itte okanakya
     C#m             F#m         Bm
ikenai koto ga kono yo ni wa takusan
    C#     C#m F#m     A
arunda yo ne hontou wa
F#m         E
kurikaeshiteku
         C#m            F#m   F#    Bm
kisetsu no naka deamaeteta to kizuite mo
      D  C#   E
kitto ososugite

Piano * Bells solo:
F#m   E    C#m  F#m
F#m   A    B   F#m

     Bb     B         F#
kimi ga sabishii toki ni dake
   Ebm                 Bm
omoidasu you na boku nara iranai

C# C# C# C# C# C# C#

       F#m        E                C#m  F#m
kotoba ni shitara kowaresou de kowakute
    Bm     D    E            C#m    F#m
itsumo fuzakeau koto shika dekinakatta
      F#m      E                  C#m        F#m
ano toki kimi wo dakishimeru koto ga dekitara
  F#m       A        F#sus4   F#
unmei wa kawatteita no kana
  F#m       A       F#sus4   F#
unmei wa kaerareta no kana

SOLO 2:
-17-----14--------------|------------------|-12-----------------------|-------|
-----------1412--12b14--|-10h12vvv---12h14-|----14-12-----------------|-------|
------------------------|------------------|----------13--11--9--/11--|-------|
------------------------|------------------|--------------------------|-------|
------------------------|------------------|--------------------------|-------|
------------------------|------------------|--------------------------|-------|
 A                       E                   C#m

-------------------------------------------------|----------------------------|
---------------10/12--10--12---------------------|----------------------------|
----9-/11----9------------11b---11---------------|----------------------------|
-11-------11-------------------------9vv---------|-----------------------11---|
------------------------------------------12--11-|-12-11-12-14--------11------|
-------------------------------------------------|--------------12-14---------|
 F#m                                                F#m

----------------------------------|-------------------------------------------|
----10vv--------------------------|-------------------14-brbr------------14---|
-11------11b13r11-9-11b13--11vvvv-|----------11-11b13----------13-11--11------|
----------------------------------|-------11----------------------------------|
----------------------------------|-11h13-------------------------------------|
----------------------------------|-------------------------------------------|
 A                                  B

-14b16-|-r14------------------------------------------------------------------|
-------|----------------------------------------------------------------------|
-------|----------------------------------------------------------------------|
-------|----------------------------------------------------------------------|
-------|----------------------------------------------------------------------|
-------|----------------------------------------------------------------------|
         F#
Добавлено: 22.09.2013
Другие материалы по этой песне:
  • Аккорды и текст

Страница создана 22.09.2013
http://primanota.ru/buono/shoushitsuten-chords.htm
Привет, Гость.
Предлагаем пройти революционный курс по гитаре.
Подарок от PrimaNota.Ru, забирай!