PrimaNota.ru - самый крупный в мире бесплатный архив песенных текстов, аккордов, табулатур и нот


Buono - Runaway Train - таба, видео

Регистрация Запомнить меня
Войти через:  Facebook Google Twitter Vk Yandex Mail.ru

Buono - Runaway Train - таба, видео

Печатать
Просмотров: 93
Runaway Train
by Buono!
tabbed by manOutOfTime
key: E

INTRO:
-12----14----16----14-----|---------------|---------------|
----12----12----12----12--|---------------|---------------|
--------------------------|---------------|-4-----4-6-----|
--------------------------|-6-----6-7-----|-4-----4-6-----|
--------------------------|-6-----6-7-----|-2-----2-4-----|
----------------------x9--|-4-----4-5-----|---------------|

-----------------|--------------------|
---55555---55555-|---55555------------|
---44444---44444-|---44444-777-121212-|
-2-22222-2-22222-|-2-22222-777-121212-|
-2-------2-------|-2-------555-101010-|
-0-------0-------|-0------------------| x2

E
Hachikire souda
                  A            D  G
Mune no omoi ga bakuhatsu suru
           E
Kiite kure yo

E D D# E

Guru guru mawaru
Irotoridori desu
 A           D   G      E
Atama'n naka itsumo mankai

BRIDGE:
--------------------------------|------------------------------------|
--------------------------------|-----------------------10101010-9-9-|
-11-----------------8---8-6---6-|-11----------------x----------------|
----119---------------------9---|----119-----------------------------|
--------97---------9------------|--------97--------------------------|
-----------9\7/9--7---x---------|-----------9\7/9--------------------|
Doushiyou asa made furuete misero

-------------------------------------|-------------x-x-101010101010-|
-------------------------------------|---------777------------------|
-11------------------8---8-----------|-777-999----------------------|
----119------------------------------|------------------------------|
--------97---------9-----------------|------------------------------|
-----------9\7/9-7-----x---6bbb8rrr6-|------------------------------|
Doushite ano ko wa mabushikute kyou mo

------------------|-----------------------|
------------------|----------------7-9vvv-|
------------------|-----------------------|
-x9-x9-x9-9999999-|-x9-x9-x9--999---------|
-x9-x9-x9-9999999-|-x9-x9-x9--999---------|
-x7-x7-x7-7777777-|-x7-x7-x7--777---------|
Nande nande nando demo kurushimeru no

CHORUS:
A               G#m C#m
Boku wo oite ikanaide
A                    G#m C#m
Boku wo hitori ni shinaide

------------------------------|---------------------|
-1010101010101010-10\99999999-|-88888888-8\77777777-|
-9-9-9-9-9-9-9-9--9-\99999999-|-77777777-7\77777777-|
-7-7-7-7-7-7-7-7--7-\66666666-|-55555555-5\44444444-|
------------------------------|---------------------|
------------------------------|---------------------|
 A
Kimi ni ai no bousou ressha

-------------------------------------------------------|
-7777777-/9-9999999--1010101010101010-1212-99-77-9-5---|
-6666666-/8-8888888--9-9-9-9-9-9-9-9--1111-88-66-8-4---|
-4444444-/6-6666666--7-7-7-7-7-7-7-7--9-9--66-44-6-2---|
-------------------------------------------------------|
-------------------------------------------------------|
 F#       G#         A                B    G# F# G# E
Sekaijuu wo teki ni mawashite mo hashiri tsudzukero

-----------------|--------------------|
---55555---55555-|---55555------------|
---44444---44444-|---44444-777-121212-|
-2-22222-2-22222-|-2-22222-777-121212-|
-2-------2-------|-2-------555-101010-|
-0-------0-------|-0------------------| x2
              oh yeah
VERSE:
E
Kono mama iezu
                    A          D  G
Hyakunen koukai shitara boku wa
           E
Makeinu daro

BRIDGE:
Sou ja nai nemurenai ano ko no yume ga
Sou kamo kokoro wa juunana kaiten shite
Dokidoki douka shite shimai souda

CHORUS:
Kimi no koto ga daisuki da
Kimi wo zutto kanjiteta
Boku no yume wa mukidashi no mama
Konna ni suki sugite ima ni mo kizutsukechai sou

SOLO:
--------------------------------------------------|--------------------------|
-5-5---5-5----5--------------15b17bbb-------------|--------------------------|
-7b7b--7b7b---7b-7-5------------------------------|--------------------------|
---------------------7-5---------------14\\\\\1b2-|--------------------------|
-------------------------7------------------------|--------------------------|
--------------------------------------------------|--------------------------|

----------------------------------------------|------------------------------|
--------------------------5\\\----------------|------------------------------|
--------------------------4\\\----11vv--13vv--|------------------------------|
-2--4--6--2-4-6-2-4-6-----2\\\----------------|------------------------------|
----------------------------------------------|------------------------------|
----------------------------------------------|------------------------------|

---------------------------------------------|--------------|
----7-5-4------------6-5-4-------------------|-13---13-13vv-|
----------6-4--------------6-4---------------|-14---14-13vv-|
-4------------7-6-33-----------7--6--6--7-/9-|--------------|
---------------------------------------------|--------------|
---------------------------------------------|--------------|

-12tr-14tr-16tr-14tr-12tr-14tr-16tr-14tr-|----------------------|
-----------------------------------------|-12v--14v--16vvvvvvvv-|
-----------------------------------------|----------------------|
-----------------------------------------|----------------------|
-----------------------------------------|----------------------|
-----------------------------------------|----------------------|

-----------------------------------------|
-16v---17v---19vvvv\\\\-------7---9vvvv--|
-----------------------------------------|
-----------------------------------------|
-----------------------------------------|
-----------------------------------------|
Nande nande nando demo kurushimeru no

CHORUS:
A               G#m C#m
Boku wo oite ikanaide
A               G#m C#m
Boku wo hitori ni shinaide
 A
Kimi ni ai no bousou ressha
 F#       G#         A                B    G# F# G# E
Sekaijuu wo teki ni mawashite mo hashiri tsudzukero
 F#       G#         A                B    G# F# G# E
Sekaijuu wo teki ni mawashite mo hashiri tsudzukero

-----------------|--------------------|
---55555---55555-|---55555------------|
---44444---44444-|---44444-777-121212-|
-2-22222-2-22222-|-2-22222-777-121212-|
-2-------2-------|-2-------555-101010-|
-0-------0-------|-0------------------| x2
                Oh yeah
Добавлено: 20.08.2013
Другие материалы по этой песне:
  • Аккорды и текст

Страница создана 20.08.2013
http://primanota.ru/buono/runaway-train-chords.htm
Привет, Гость.
Предлагаем пройти революционный курс по гитаре.
Подарок от PrimaNota.Ru, забирай!