PrimaNota.ru - самый крупный в мире бесплатный архив песенных текстов, аккордов, табулатур и нот


Buono - Rottara Rottara - таба, видео

Регистрация Запомнить меня
Войти через:  Facebook Google Twitter Vk Yandex Mail.ru

Buono - Rottara Rottara - таба, видео

Печатать
Просмотров: 158
Уроки эстрадного вокала в Санкт-Петербурге
Buono! - Rottara Rottara!
tabbed by manOutOfTime
Updated: Fixed a lot
F#5* xxx341

-------------------------------|---------------------------------------------|
-6--/7-7----6--/7-7----6--/7-7-|---------------------------------------------|
-4--/5-5----4--/5-5----4--/5-5-|---------------------------------------------|
-3--/4-4----3--/4-4----3--/4-4-|---------------------------------------------|
-------------------------------|---------------------------------------------|
-------------------------------|---------------------------------------------|
(Honto! ?)

-------------------------------|---------------------------------------------|
-6--/7-7----6--/7-7----6--/7-7-|---------------------------------------------|
-4--/5-5----4--/5-5----4--/5-5-|---------------------------------------------|
-3--/4-4----3--/4-4----3--/4-4-|---------------------------------------------|
-------------------------------|---------------------------------------------|
-------------------------------|---------------------------------------------|

(Ehh! ?)

-------------------------------|----9*---------------------------------------|
-6--/7-7----6--/7-7----6--/7-7-|------9*-------------------------------------|
-4--/5-5----4--/5-5----4--/5-5-|---------------------------------------------|
-3--/4-4----3--/4-4----3--/4-4-|---------------------------------------------|
-------------------------------|---------------------------------------------|
-------------------------------|---------------------------------------------|
Rottara     Rottara   Rottara

-------------------------------|---------------------------------------------|
-6--/7-7----6--/7-7----6--/7-7-|---------------------------------------------|
-4--/5-5----4--/5-5----4--/5-5-|---------------------------------------------|
-3--/4-4----3--/4-4----3--/4-4-|---------------------------------------------|
-------------------------------|---------------------------------------------|
-------------------------------|---------------------------------------------|
Rottara    Rottara     Rottara

F#          F#5*
Kyou no bokutachi ga
B              Bm
Otona natte shimaeba
Bbm                    D#m        G#m
Kitto mieteru mono sae mienaku natte

Shimau

--------------------|--------------------------------------------------------|
--------------------|--------------------------------------------------------|
-5--/6-6---5--/6-6--|--------------------------------------------------------|
-5--/6-6---5--/6-6--|--------------------------------------------------------|
-3--/4-4---3--/4-4--|--------------------------------------------------------|
--------------------|--------------------------------------------------------|
Rottara    Rottara

F#5       F#5*
Kyou made bokutachi ga
B        Bm
Uchuu ni natte sagashita
Bb5                    D#5        G#5
Mono wa honto wa ittai nanda ttan darou

--------------------|--------------------------------------------------------|
--------------------|--------------------------------------------------------|
-5--/6-6---5--/6-6--|--------------------------------------------------------|
-5--/6-6---5--/6-6--|--------------------------------------------------------|
-3--/4-4---3--/4-4--|--------------------------------------------------------|
--------------------|--------------------------------------------------------|
Rottara x 2


B5  Bb5     D#5
Dareka ga itta
B5            Bb5         D#5
"shiawase ni naru tame umare,
G#5                                              C#5
Soshite dareka wo shiawase ni suru tame ikite yukun da"

-----------------------------------------------------------------------------|
-11tr-12tr-13tr-14tr\2-------------------------------------------------------|
-----------------------------------------------------------------------------|
-----------------------------------------------------------------------------|
-----------------------------------------------------------------------------|
-----------------------------------------------------------------------------|

F#
Dore kurai
     Bbm
Mune ippai no ai wo
D#m
Dore kurai
     C#
Mune ippai no ai wo
B         Bm     Bbm          D#m C#
Kakaetara bokura tsutaerareun darou

F#
Kore kurai
     Bbm
Mune ippai no ai de
D#m
Kore kurai
     C#  Bbm
Mune ippai no ai de
B         Bm
Kimi wo dakishimeta sono toki ni
G#m D#m
Futari kanji ta shiawase

G#5 G#5 G#5 G#5 C#5 C#5 C#5 C#5

F5-F#5F#5 F5-F#5F#5 F5-F#5F#5
Rottara x 3

(Nande?)

F5-F#5F#5 F5-F#5F#5 F5-F#5F#5
Rottara x 3

----------------------------------4------------------------------------------|
----------------------------------6------------------------------------------|
------------2---------------------6------------------------------------------|
----2-3-4-------4-2---------------6------------------------------------------|
--4-------4---------4-3-2-0-------4------------------------------------------|
-----------------------------3-2---------------------------------------------|

F#5       F#5*
Hitori ja mienai kedo
B          Bm
Futari nara mieteita
Bb5                    D#5        G#5
Mono wa kon nani takusan arutte shira naka ttan da

--------------------|--------------------------------------------------------|
--------------------|--------------------------------------------------------|
-5--/6-6---5--/6-6--|--------------------------------------------------------|
-5--/6-6---5--/6-6--|--------------------------------------------------------|
-3--/4-4---3--/4-4--|--------------------------------------------------------|
--------------------|--------------------------------------------------------|
Rottara x 2

-----------------------------------------------------------------------------|
-4-----4-6-----6-------------------------------------------------------------|
-----4-------4---4-----4-6-----6-3-----4/8-----8\1-----1---------------------|
---4-------4---------4-------4-------4-------8-------1-----------------------|
-------------------6-------6-------6-------9-------2-------------------------|
-----------------------------------------------------------------------------|
 F#       D#m      Bbm     B       D#m     C#      G#m

Played Over:
Te to te wo tsunage ba
Kanji rareru nani ka
Soba ni ire ba zutto kienai mono ga hoshii

--------------------|--------------------------------------------------------|
--------------------|--------------------------------------------------------|
-5--/6-6---5--/6-6--|--------------------------------------------------------|
-5--/6-6---5--/6-6--|--------------------------------------------------------|
-3--/4-4---3--/4-4--|--------------------------------------------------------|
--------------------|--------------------------------------------------------|
Rottara x 2


B5   Bb5    D#5
Tanpopo no hana
B5   Bb5    D#5
Mitai ni fuke ba ton de iku
G#5                          C#5
Ryuusei no you ni yozora he isshun de kie te iku

-----------------------------------------------------------------------------|
-----------------------------------------------------------------------------|
-3tr-4tr-8tr-6tr-------------------------------------------------------------|
-----------------------------------------------------------------------------|
-----------------------------------------------------------------------------|
-----------------------------------------------------------------------------|

F#
Dore kurai
     Bbm
Yume ippai no hibi wo
D#m
Dore kurai
     C#
Yume ippai no hibi wo
B        Bm       Bbm          D#m  C#
Ano hi bokutachi wa hashiri nuketan darou

F#
Are kurai
     Bbm
Yume ippai no hibi ni
D#m
Are kurai
     C#  Bbm
Yume ippai no hibi ni
B        Bm         Bbm        D#m
Kimi wo dakishimeta hazu na no ni
G#m          C#
Futari naku shita shiawase

G#5 G#5 G#5 G#5 C#5 C#5 C#5 C#5

Solo
----------------------------|-------------------|----------------------------|
----------------------------|-------------------|----------------------------|
----------------------------|-------------------|----------------------------|
---2---2---2----------------|---2---2---2---2---|----------------------------|
-4---4---4---4-3-2----------|-4---4---4---4-----|----------------------------|
-------------------5-2--x2--|----------------x6-|----------------------------|


-19b20r19-17------------------------------------|-----------------------------|
--------------19b20r19-17-----------------------|-----------------------------|
--------------------------16b18r16-14----14-16--|-----------------------------|
--------------------------------------16--------|---2---2---2-----------------|
------------------------------------------------|-4---4---4------4-3-2--------|
-------------------------------------------x4---|----------------------5-2----|vvv

B5  Bb5     D#5
Dare ka ga itta
B5  Bb5     D#5
"shiawase ni naru tame umare,
G#m                                            C#
Soshite dareka wo shiawase ni suru tame ikite ikun da"

-----------------------------------------------------------------------------|
-----------------------------------------------------------------------------|
-3tr-4tr-5tr/17--------------------------------------------------------------|
-----------------------------------------------------------------------------|
-----------------------------------------------------------------------------|
-----------------------------------------------------------------------------|

F#
Dore kurai
     Bbm
Mune ippai no ai wo
D#m
Dore kurai
     C#
Mune ippai no ai wo
B        Bm       Bbm          D#m  C#
Kakaertara bokura tsutaerarerun darou

F#
Kore kurai
     Bbm
Mune ippai no ai de
D#m
Kore kurai
     C#  Bbm
Ippai no ai de
B        Bm         Bbm       d#m
Kimi wo dakishimeta sono toki ni
G#m          C#
Futari kanji ta shiawase

F5-F#5F#5 F5-F#5F#5 F5-F#5F#5
Rottara x 3

(Nande?)

F5-F#5F#5 F5-F#5F#5 F5-F#5F#5 F5-F#5F#5 F5-F#5F#5 F5-F#5F#5
Rottara x 6

(Honto! ?)

Rottara x 21
(i play this over the Rottaras. Sounds ok.
-----------------|--------------|--------------------------------------------|
-10tr-12tr-------|--------------|--------------------------------------------|
-----------11tr--|-9tr-11t------|--------------------------------------------|
-----------------|---------11tr-|--------------------------------------------|
-----------------|--------------|--------------------------------------------|
-----------------|--------------|--------------------------------------------|

Fuu~
Добавлено: 23.02.2012
Другие материалы по этой песне:

Страница создана 23.02.2012
http://primanota.ru/buono/rottara-rottara-chords.htm
Привет, Гость.
Предлагаем пройти революционный курс по гитаре.
Подарок от PrimaNota.Ru, забирай!