PrimaNota.ru - самый крупный в мире бесплатный архив песенных текстов, аккордов, табулатур и нот


Buono - Renai Rider - таба, видео

Регистрация Запомнить меня
Войти через:  Facebook Google Twitter Vk Yandex Mail.ru

Buono - Renai Rider - таба, видео

Печатать
Просмотров: 223
Уроки эстрадного вокала в Санкт-Петербурге
Renai Rider by Buono! (http://buono-net.com/pc_index.html)
Tabbed by manOutOfTime (neil_willey@hotmail.com)
Key: C#
UPDATE: Fixed for accuracy

G#/F# 366544

**Intro**
-6/9-9/11-11-6/9/11-|--/11-11-111111-1111-9-8---4/6-6-6666-88-888----|
-6/9-9/11-11-6/9/11-|------------------------------------------------|
--------------------|------------------------------------------------|
--------------------|------------------------------------------------|
--------------------|------------------------------------------------|
--------------------|---------------------------------------------rpt|


-9-9--99-99-1111-1111--|
-----------------------|
-----------------------|
-----------------------|
-----------------------|
-----------------------|


**Verse (& Singing Melody)**
----------------------------------|------------------------|-----------------|
-6-9------------------------------|------9-11--11---13-13--|------9-11--11---|
-----8-10--5-8----5------5-5------|-8-10-------------------|-8-10------------|
----------------8-----6-------8-6-|------------------------|-----------------|
----------------------------------|------------------------|-----------------|
----------------------------------|------------------------|-----------------|
C#					       G#
Sekai ga owareba sore made jan     Suki da yo! OMAE         Suki! SUKI! Su

-----------||----------------------------------------------------------------|
-13-13-9-9-||----------------------------------------------------------------|
-----------||----------------------------------------------------------------|
-----------||----------------------------------------------------------------|
-----------||----------------------------------------------------------------|
-----------||----------------------------------------------------------------|
 ki na n da!


C#
JITABATA atashi wa ikiteruze
	   G#
kizuke yo! OMAE
suki! SUKI! Suki na no ni!


**Bridge**
Fm G#	   C#  G#      Fm
Iitai kuse ni ienain da yo
Fm G#     Bbm
tsutaetai na My ? HAATO
          C#        G#   G#/F#
Oh Yes! HIIROO wa hitori dake

**Chorus**
G#		   Fm
Koi shiteru kagiri dekoboko darake
C#		        Bbm
hashiri tsuzukero hora! HENACHOKO RAIDAA
G#		    Fm          Fm7
yuuyake ippon michi motto motto tsuyoku
C#		  Bbm        G#
seishun no kouya wo hashire

**Riff**

**Verse**
C#
Ashita wa ashita no kaze yo fuke
	   G#
BIBIRU na! Atashi
arashi wo yobu ONNA
C#
HAPPIIENDO de doro darake
	  G#
yatta ne! Atashi
donzoko tachiagaru

**Bridge**
Fm G#	   C#  G#      Fm
Nakitain da yo ureshiin da yo
Fm G#     Bbm
toriaezu DABURU PIISU!!
          C#        G#   G#/F#
Go! Go! Doko made mo tsuppashire


**Chorus**
G#		   Fm
Koi shiteru kagiri FURAFURA darake
C#		     Bbm
aishi tsuzukero ike! HENACHOKO RAIDAA
G#		  Fm          Fm7
KOKETE kizutsuite kitto kitto itsuka
C#		  Bbm        G#
saikou no kiseki wo tsukame

**Break**
---------------------|---------|------------------------------------------|
---------------------|---------|------------------------------------------|
---------------------|---------|------------------------------------------|
---------------------|---------|------------------------------------------|
------3-1------------|---------|------3-1---------------------------------|
-1--1-----4-3--1-0-1-|-13tr-\1-|-1--1-----4-3--1-0-1----------------------|
                  x4       				   x4

F#5 F#5 F#5 G5 G#5

Fm    G#      C#      G#      Fm
Michi ni mayotte sore demo ii yo
Fm  G#        Bbm
kotoba tarazu My ? HAATO
          C#        G#   G#/F#
Oh Yes! HIIROO wa hitori dake

**Chorus**
G#		   Fm
Koi shiteru kagiri dekoboko darake
C#		        Bbm
hashiri tsuzukero hora! HENACHOKO RAIDAA
G#		    Fm          Fm7
yuuyake ippon michi motto motto tsuyoku
C#		  Bbm        G#
seishun no kouya wo hashire

Riff & Intro
Добавлено: 27.03.2012
Другие материалы по этой песне:

Страница создана 27.03.2012
http://primanota.ru/buono/renai-rider-chords.htm
Привет, Гость.
Предлагаем пройти революционный курс по гитаре.
Подарок от PrimaNota.Ru, забирай!