PrimaNota.ru - самый крупный в мире бесплатный архив песенных текстов, аккордов, табулатур и нот


Buono - Over The Rainbow - аккорды и текст, видео

Регистрация Запомнить меня
Войти через:  Facebook Google Twitter Vk Yandex Mail.ru

Buono - Over The Rainbow - аккорды и текст, видео

Печатать
Просмотров: 139
Авторы музыки: Gajin
Авторы текста: 岩里祐穂
Over The Rainbow
Buono
Buono - Over the Rainbow
tabbed by ManOutOfTime

INTRO

D E  C#m F#m Bm  D

VERSE
     F#m          D
Ame agari no sora wo
       Bm   E       A
Itsudatte sagashiteiru
F#m       C#m     F#m     C#m
Kumo no nai sunda sora ni wa
  Bm     D       E
Kibou ga afureteiru kara

PRECHORUS
D         C#        F#m     E
Nakushita mono ya kanawanai koto wo
  D             E            F#sus4
Kazoete bakari ita kedo wow wow

CHORUS
          F#
Niji no mukou
     C#        Bbm    D#m
Mada mita koto no nai sekai
G#m  C#       D#m
Kimi to yuku ai aru basho e
G#m        C#          Bbm     D#m
Nani ga matteru ka wakaranai kedo
       G#                     C#             F#
We are always lookin' for the rainbow in the sky

VERSE
      F#m         D
Nakiharashita kao wa
        Bm      E       A
Hito ni nante miraretakunai
F#m    C#m      F#m     C#m
Kontakuto hazushita shunkan
  Bm       D      E
Boyakeru fuukei mitai ni

PRECHORUS
D         C#     F#m       E
Kimi ga mienai toki mo aru no kana
  D              E              F#sus4
Konna ni chikaku ni ite mo wow wow

CHORUS (Key:F#)
          F#
Niji no mukou
    C#      Bbm   D#m
Tadoreba kitto ikeru deshou
    G#m        C#       D#m
Watashitachi kagayaku basho e
G#m            C#        Bbm     D#m
Nani ga kawaru no ka wakaranai kedo
      G#                     C#              F#
We're always lookin' for the rainbow in the sky

SOLO 1

E|-------------------------|-----------------|-----------------------|
B|-------------------------|-----------------|-----------------12-12-|
G|--------------------10---|-11----10b-9v----|-8-9-11-----8-11-------|
D|------------------8------|----11-----------|----------9------------|
A|-2/9---------9-11--------|-----------------|-----------------------|
E|-------9-11--------------|-----------------|-----------------------|
     F#                            C#              Bbm

E|---------------------------------------|----------9-13-14-16-14p13h14-|
B|-12b-12p11h12-10-9-9h10p9----9---------|-------11---------------------|
G|--------------------------11------9-11-|-10-11------------------------|
D|-------------------------------11------|------------------------------|
A|---------------------------------------|------------------------------|
E|---------------------------------------|------------------------------|
   B               E                  F#   G#m

E|-16---------------|-------------------------------------|
B|----13-14-16--16v-|-14/16-14-------------------------14-|
G|------------------|----------15-16-15-13----13-15-16----|
D|------------------|----------------------16-------------|
A|------------------|-------------------------------------|
E|------------------|-------------------------------------|
                      C#

E|-------14-13-14-13----------16-20b--19v--|
B|----14-------------14----14--------------|
G|-13-------------------13-----------------|
D|-----------------------------------------|
A|-----------------------------------------|
E|-----------------------------------------|

MIDDLE 8
E                B
Chiisana koro nandodemo
      D#m   C#   B
Peeji yaburi kaki naoshita raku ga kichou
E                  B             C#
Sonna fuu ni mirai datte yari naoseru yo mou ichido

CHORUS
          F#
Niji no mukou
     C#        Bbm    D#m
Mada mita koto no nai sekai
     G#m      C#      D#m
Kimi to yuku ai aru basho e
G#m        C#          Bbm     D#m
Nani ga matteru ka wakaranai kedo
      G#                     C#              B
We're always lookin' for the rainbow in the sky

SOLO 2

E|----------------------------------|
B|---------------12------14b-14-14v-|
G|---------6/11------11-------------|
D|----------------------------------|
A|----------------------------------|
E|----------------------------------|
      B                  F#

E|---------------------------------|---------------------------16-------14----|
B|-12-11-12p11---------------------|---------2/14--16--18--19-----------------|
G|------------13-11-13----11v------|------------------------------------------|
D|---------------------13------13--|------------------------------------------|
A|---------------------------------|------------------------------------------|
E|---------------------------------|------------------------------------------|
  Bbm                     D#m         B                G#m        C#

E|-13--14p13----------------|
B|-----------16v------------|
G|--------------------------|
D|--------------------------|
A|--------------------------|
E|--------------------------|

G#m        C#              Bbm D#m
Nani ga matteru ka wakaranai kedo
      G#                     C#              F#
We're always lookin' for the rainbow in the sky

INTRO
----------------------------------|
-----------------------14---------|
--------------------------13------|
-----------------11----------11---|
----------------------------------|
----------------------------------|

D
Добавлено: 01.09.2013
Другие материалы по этой песне:
  • Аккорды и текст

Страница создана 01.09.2013
http://primanota.ru/buono/over-the-rainbow-chords.htm
Привет, Гость.
Предлагаем пройти революционный курс по гитаре.
Подарок от PrimaNota.Ru, забирай!