PrimaNota.ru - самый крупный в мире бесплатный архив песенных текстов, аккордов, табулатур и нот


Buono - One Way My Way - аккорды и текст, видео

Регистрация Запомнить меня
Войти через:  Facebook Google Twitter Vk Yandex Mail.ru

Buono - One Way My Way - аккорды и текст, видео

Печатать
Просмотров: 122
Авторы музыки: 木之下慶行
Авторы текста: 川上夏季
One Way My Way
Buono
Buono - One Way My Way
tabbed by manOutOfTime
Key: E

Intro:
-----------------------|-----------------------|-----------------------|-----|
-----------------------|-------------------9-9-|-----------------------|-----|
-11-9-11-99-11-11--9-9-|-11-9-11-99--11-11-----|-11-9-11-99-11-11--9-9-|-----|
-----------------------|-----------------------|-----------------------|-----|
-----------------------|-----------------------|-----------------------|-----|
-----------------------|-----------------------|-----------------------|-----|

-------------------|----------------|----------------------------------------|
-121212--101010----|-12--10--9------|----------------------------------------|
-------------------|------------11--|----------------------------------------|
-------------------|----------------|----------------------------------------|
-------------------|----------------|----------------------------------------|
-------------------|----------------|----------------------------------------|
played over:
E  B  A  E

B                  E
Tooku de kiteki ga hibiiteru
Abm              F#
Shiroi iki hazumasete kakedasunda
B                  E
Dare mo inai eki no HOOMU ni
C#m         B          E
Tachikomeru asagasumi wa DAIYAMONDO

A         B              Abm    C#m
Suberikon de kita ressha no yukusaki wa
A           B             D
CHIKETTO ni mo doko ni mo kaitenai

    E                       B
Go! One Way, My Way Dokomademo
A                         E                B
Hateshinaku tsuzuku REERU no motto zutto saki made
    E                       B
Go! One Way, My Way Dokomademo
A                      E         F#m         E
Atashi-tachi no bouken wa mada hajimatta bakari

Intro

B                  E
Massara na rosenzu wo hirogetara
Abm              F#
Atarashii eki wo kakikon de yukunda
B                  E
Korekara deaeru takusan no
C#m         B          E
SUMAIRU ya HAPUNINGU omoi nagara

A         B              Abm    C#m
Ima wa mada GARAGARA no SUUTSUKEESU wa
A           B             D
Yume toka ai toka ga tsumaru yotei

    E                       B
Go! One Way, My Way Dokomademo
A                         E                B
Shiranai machi haruka na basho kimi ni aeru kana
    E                       B
Go! One Way, My Way Dokomademo
A                      E         F#m         E
Atashi-tachi no bouken wa tsuzuite yukunda kara

Solo
-----12--------------12-----12---12-------12------12-----12----12------------|
-11b----1212-1212-12----1212---12--12---12---1212---1212-----12----12--------|
-----------------------------------------------------------------------------|
-----------------------------------------------------------------------------|
-----------------------------------------------------------------------------|
-----------------------------------------------------------------------------|

-20b--19v---17-16-17---1617--16h17p16----16----------------------------------|
--------------------------------------19----19-17------16-17---16-----19-19--|
----------------------------------------------------18------------18---------|
-----------------------------------------------------------------------------|
-----------------------------------------------------------------------------|
-----------------------------------------------------------------------------|

------|------------------17-19-17------------------------|-------------------|
-1919-|-1919-/21--/21-21----------21-19v---21p19---------|-------------------|
------|------------------------------------------21--21\-|-21\20-20-20\18-18-|
------|--------------------------------------------------|-------------------|
------|--------------------------------------------------|-------------------|
------|--------------------------------------------------|-------------------|

----------------------------|----------------------------|-------------------|
----------------------------|-------/17-------20-20-19v--|-------------------|
-18\16-16-16\14-14-14\13-13-|-----------1717-------------|-------------------|
----------------------------|----------------------------|-------------------|
----------------------------|----------------------------|-------------------|
----------------------------|----------------------------|-------------------|

A         B              Abm    C#m
Hassha no BERU ga narihibiki dashita nara
A         B      E
Omoikitte tobinocchaeba ii

    E                       B
Go! One Way, My Way Dokomademo
A                         E                B
Hateshinaku tsuzuku REERU no motto zutto saki made
    E                       B
Go! One Way, My Way Dokomademo
A                      E         F#m         E
Atashi-tachi wa bouken wo tsuzukete yuku dakara

Intro x2
Добавлено: 11.07.2012
Другие материалы по этой песне:
  • Аккорды и текст

Страница создана 11.07.2012
http://primanota.ru/buono/one-way-my-way-chords.htm
Привет, Гость.
Предлагаем пройти революционный курс по гитаре.
Подарок от PrimaNota.Ru, забирай!