PrimaNota.ru - самый крупный в мире бесплатный архив песенных текстов, аккордов, табулатур и нот


Buono - Natsu Dakara - таба, видео

Регистрация Запомнить меня
Войти через:  Facebook Google Twitter Vk Yandex Mail.ru

Buono - Natsu Dakara - таба, видео

Печатать
Просмотров: 115
Natsu Dakara
by Buono!
tabbed by manOutOfTime
Key: F

Tips:
C/B   x20010
C/A   x00010
C/G   302010

INTRO:
F            C
Itsumo itsudatte
Dm              Am
Dokoni itato shitemo
      Bb           Am
Subete PURASU ni kaete miseru
      Gm
Nante ieru

C         C    C/B  C/A  C/G
Natsu dakara !
         (blue blue blue sky)
      C    C/B  C/A  C/G
Negau yo
     (blue blue sunshine)
       C    C/B  C/A  C/G C    C/B  C/A  C/G
Ashita wa
      (blue blue blue sky blue blue sunshine)

F            C
Kono mune no MOYAMOYA tachi
Dm         Am
Nyudougumo no you ni
      Bb    Am  Gm          C
Ame wo sasoi   nakitashisou dayo

F            C
Hisashiburi dane DORAIBU
Dm         Am
Anata nanika kanjite
      Bb    Am  Gm          C C#
DASSHUBOODO no KYANDII kuretano

----------------|
-------------7--|
-5---5-6---7----|
---5-----7------|
----------------|
----------------|

MIDDLE:
--------------------------------------------------------------------------|
--------------------------------------------------------------------------|
-7-7------------8-8----2-2------------8-8---------------------------------|
-7-7------------8-8----2-2------------8-8---------------------------------|
-5-5---5---5--5-6-6----0-0---0---0--0-6-6-------------------6--6--6-5-4-3-|
---------5---------------------0-------------3--5---/6--8-----------------|
Kaze ni  tonjauyo fuusen          Mou ! Chanto motto kitsuku nigiri shimete

F          C
Itsumo itsudatte (dakara!)
Dm        Am
Dokoni itato shitemo (dakara!)
Bb               Am
Sora wo miagete omou koto wa
Gm               C
Issho de itai yo ne (natsu dakara!)

F          C
Anata furimuite (dakara!)
Dm        Am
Dokoni itato shitemo (dakara!)
Bb                 Am
Kimi no mirai wo mitsumeteiru
Gm
Kono kokoro wa

C         C    C/B  C/A  C/G
Sora ni aru
        (blue blue blue sky)
     C    C/B  C/A  C/G
Omoi wa
    (blue blue sunshine)
        C    C/B  C/A  C/G C    C/B  C/A  C/G
Hitotsu sa
       (blue blue blue sky blue blue sunshine)

F            C
Atte kara juu go fun de
Dm         Am
Nanka otona ni nacchata yo
      Bb    Am  Gm          C
Omou koto no hanbun mo iezuni

----------------|
-------------7--|
-5---5-6---7----|
---5-----7------|
----------------|
----------------|

MIDDLE:
--------------------------------------------------------------------------|---|
--------------------------------------------------------------------------|---|
-7-7------------8-8----2-2------------8-8---------------------------------|---|
-7-7------------8-8----2-2------------8-8---------------------------------|---|
-5-5---5---5--5-6-6----0-0---0---0--0-6-6-------------------6--6--6-5-4-3-|---|
---------5---------------------0-------------3--5---/6--8-----------------|---|
Jama wo shitakunai kimochi to               Jama wo shitai kimochi Tatakatteta

F          C
Itsumo itsudatte (dakara!)
Dm                Am
Doko ni ita to shite mo (dakara!)
Bb                 Am
Kaze ni fukarete omou koto wa
Gm               C
Issho de itai yo ne (natsu dakara!)

F          C
Watashi doushitano ? (dakara!)
Dm        Am
Konna wagamama dakke (dakara!)
Bb                 Am
Mienu onna ni nacchaisou
Gm
Kono kokoro wa natsu dakara !

SOLO:
-||--------------------------|-------------------------||-------------------|
-||--------------------------|-------------------------||-------------------|
-||--------------------------|-------------------------||-------------------|
-||--------------------------|-------------------------||-------------------|
-||-8-8-----8-8-8-----10-11--|-8-8------8-8-8----------||-------------------|
-||-----810---------8--------|-----8-10---------8-5656-||-------------------|
    PM==============>          PM===============>

--------------13------------------------13p12h13----------------------------|
----------------------10h11p10--------------------10p9h10-------------------|
-5/10-10p9h10---------------------------------------------------------------|
----------------------------------------------------------------------------|
----------------------------------------------------------------------------|
----------------------------------------------------------------------------|

--------------------11/13-----15----17--------------------------------------|
-10br---------------12/13----------------------------17\--------------------|
------10---------------------------------171514-----------------------------|
---------10----10------------------------------1715-------------------------|
------------12--------------------------------------------------------------|
----------------------------------------------------------------------------|
         PM=====>
-------------|-------------|-------------------|----------------|------------|
-4p3h4-6p4h6-|-8p6h8-9p8h9-|-13p11h13-15p13h15-|-17h18p17h18p17-|------------|
-------------|-------------|-------------------|----------------|------------|
-------------|-------------|-------------------|----------------|------------|
-------------|-------------|-------------------|----------------|------------|
-------------|-------------|-------------------|----------------|------------|

---------------|---------------|-----------------|----------------------|---|
---------------|---------------|-----------------|-15b-15b-15b-15-14-13-|---|
---------------|---------------|-----------------|----------------------|---|
---------------|---------------|-5---7--8----10--|----------------------|---|
-5---5---5-6---|---------------|-5---7--8----10--|----------------------|---|
-------5-------|-5---5-0-5-6---|-3---5--6----8---|----------------------|---|
Jama wo shitakunai kimochi to   Ah Jama wo shitai kimochi  Tatakatteta

F          C
Itsumo itsudatte (dakara!)
Dm                Am
Doko ni ita to shite mo (dakara!)
Bb                 Am
Sora de KUROORU shitai kurai
Gm              C
Waratte itai yo ne (natsu dakara!)

F          C
Konya mikazuki ni (dakara!)
Dm                Am
Futari koshi kaketara (dakara!)
Bb                 Am
Yurari yurarete asayake made
Gm
Kono kokoro wa

C         C    C/B  C/A  C/G
Natsu dakara !
         (blue blue blue sky)
     C    C/B  C/A  C/G
Omoi wa
    (blue blue sunshine)
        C    C/B  C/A  C/G C    C/B  C/A  C/G
Hitotsu sa
       (blue blue blue sky blue blue sunshine)

OUTRO:
-3-5-----3-5-----3-5-----3-5------------|
-----6-1-----6-1-----6-1-----6-1--------|
--0-0-0-0-0-0-0-0-0-0-0-0-0-0-0-0-------|
----------------------------------------|
----------------------------------------|rpt to fade
----------------------------------------|
Добавлено: 13.06.2013
Другие материалы по этой песне:
  • Аккорды и текст

Страница создана 13.06.2013
http://primanota.ru/buono/natsu-dakara-chords.htm
Привет, Гость.
Предлагаем пройти революционный курс по гитаре.
Подарок от PrimaNota.Ru, забирай!